>
 >
Black Heart Queen

Black Heart Queen Guitar Tabs

Gallows - Black Heart Queen chords, tabs, tablatures, lyrics

Guitar lessons | Add/correct | Request | Top 50 tabs Artists:  A B C D E F G H I J K L M N O P Q R S T U V W X Y Z 0-9

Black Heart Queen Guitar Tabs – Gallows

CD, Sheet music, Poster

Do you like Black Heart Queen? Share with your friends now
TabsTabs v2
-------------------------------------------------------------------------------
-------------------------------------------------------------------------------

Tuning: Drop D

Well, I guess this tab is kina decent. I’m not sure about the lead parts, it probably 
some effects that makes that sounds, but I just put bends and I guess it sounds okay.


Intro 1
Guitar 1
e|---------------------------------------------------------------------------|
B|---------------------------------------------------------------------------|
G|---------------------------------------------------------------------------|
D|-00-xxxxxxxxxxxx-00-xxxxx—8-88-1111-1111-----------------------------------|
A|-00-xxxxxxxxxxxx-00-xxxxx-8-88-1111-1111-----------------------------------|
E|-00-xxxxxxxxxxxx-00-xxxxx-8-88-1111-1111-----------------------------------|

Guitar 2 comes in and plays the same thing in a bit.

Then Guitar 1 plays this, while guitar 2 plays intro 1

Intro 2
e|---------------------------------------------------------------------------|
B|---------------------------------------------------------------------------|
G|---------------------------------------------------------------------------|
D|--------------------8-88-1010-1010----------------888-1010101010-----------|
A|-----3--------------8-88-1010-1010----3------------888-1010101010-----------|
E|-0-0--0-3/5-0—(3x)-8-88-1010-1010--0-0-0-3/5-0--888-1010101010-----------|


Verse
Both Guitars
e|---------------------------------------------------------------------------|
B|---------------------------------------------------------------------------|
G|---------------------------------------------------------------------------|
D|-00-60-3/5-0------88/66--00-60-3/5-0------88/66-101010/88------------------|  (2x)
A|-00-60-3/5-0-(3x)-88/66--00-60-3/5-0-(3x)-88/66-101010/88------------------|
E|-00-60-3/5-0------88/66--00-60-3/5-0------88/66-101010/88------------------|

Prechorus
e|---------------------------------------------------------------------------|
B|---------------------------------------------------------------------------|
G|---------------------------------------------------------------------------|
D|-1212/1010—-0~----65--86---------------------------------------------------|
A|-1212/1010—-0~----65--86---------------------------------------------------|
E|-1212/1010—-0~----65--86---------------------------------------------------|


Chorus
Guitar1
e|---------------------------------------------------------------------------|
B|---------------------------------------------------------------------------|
G|-12b14-(6x)-14p12p10-10b12-10-7-/14-12-10-7--------------------------------|
D|---------------------------------------------------------------------------|
A|---------------------------------------------------------------------------|
E|---------------------------------------------------------------------------|


e|-----------------------------------------------------------------------------|
B|-----------------------------------------------------------------------------|
G|-12b14-(6x)-14p12p10-19-17-15h17p15-/14-12~----------------------------------|
D|-----------------------------------------------------------------------------|
A|-----------------------------------------------------------------------------|
E|-----------------------------------------------------------------------------|


Guitar2
e|---------------------------------------------------------------------------|
B|-----------------------------------------------------875-------------------|
G|--------------------------------------------------35-----------------------|
D|-00-3/5------000-65--85--------------00-3/5-00-35---------65--85-----------|
A|-00-3/5-(3x)-000-65--85--------------00-3/5-00------------65--85-----------|
E|-00----------000-65--85--------------00-----00------------65--85-----------|

Play that 3 times then play the second one.


Post Chorus
Guitar 1
e|---------------------------------------------------------------------------|
B|-12b14-(6x)---12b14-(3x)-\-------------------------------------------------|
G|---------------------------------------------------------------------------| (2x)
D|---------------------------------------------------------------------------|
A|---------------------------------------------------------------------------|
E|---------------------------------------------------------------------------|

Guitar 2 plays intro 1


Bridge?

Guitar 2
e|---------------------------------------------------------------------------|
B|---------------------------------------------------------------------------|
G|---------------------------------------------------------------------------|
D|-0~--3~--5~-3~0~--675~-----------------------------------------------------|
A|-0~--3~--5~-3~0~--675~-----------------------------------------------------|
E|-0~--3~--5~-3~0~--675~-----------------------------------------------------|

Repeat that until whenever then play with around with this…

e|---------------------------------------------------------------------------|
B|---------------------------------------------------------------------------|
G|-7b9-7b9-7b9-7b9-7h9p7-7b9-7b9-7b9-7b9-------------------------------------|
D|---------------------------------------------------------------------------|
A|---------------------------------------------------------------------------|
E|---------------------------------------------------------------------------|

Something like that.


Guitar 1

Comes in after a bit.
e|---------------------------------------------------------------------------|
B|------------------------------------------13----------------13-------------|
G|-12b14-(4x)-12-12b14-12-12b14-10-12-12b14----12b14-12-12b14----12b14-12----|
D|---------------------------------------------------------------------------|
A|---------------------------------------------------------------------------|
E|---------------------------------------------------------------------------|

e|---------------------------------------------------------------------------|
B|---------------------------------------------------------------------------|
G|-12b14~~-12-12b14~~--------------------------------------------------------|
D|---------------------------------------------------------------------------|
A|---------------------------------------------------------------------------|
E|---------------------------------------------------------------------------|

Something like that.

You could just play the bended notes if you don't like bending stuff. Works just fine I 
But bending it makes it sexier so...





Comments


Popular Gallows tabs & chords
Abandon Ship Bass Tabs
I Dread The Night Bass Tabs
Kill The Rhythm Bass Tabs
Staring At The Rude Bois Bass Tabs
Staring At The Rude Bois 2 Bass Tabs
The Riverbed 3 Bass Tabs
Misery Chords
Come Friendly Bombs Tabs
Death Voices Tabs
In The Belly Of A Shark 4 Tabs


Song lyrics



↑ Back to top | Tablatures and chords are parodies/interpretations of the original songs. You may use it for private study, scholarship, research or language learning purposes only
© 2014 AZChords.com Contact us | Privacy policy | DMCA | Add/correct tabs | Request tabs | Top 50 tabs