>
 >
Black Eyes

Black Eyes Guitar Tabs

Gallows - Black Eyes chords, tabs, tablatures, lyrics

Guitar lessons | Add/correct | Request | Top 50 tabs Artists:  A B C D E F G H I J K L M N O P Q R S T U V W X Y Z 0-9

Black Eyes Guitar Tabs – Gallows

CD, Sheet music, Poster

Do you like Black Eyes? Share with your friends now
Bass TabsTabs


Tuning: Drop D

I keep a fresh Gallows tab in the sole of my shoes.

I corrected a few things on 9/5/09 when I saw this played live.
I only changed a few things I got right but the band played them on different strings.


  Intro/Verse  Guitar 1
e|-----------------------------------------------------------------------|
B|-----------------------------------------------------------------------|
G|--------------------------------------------------------------555-777--|
D|--555-333-00----------333-555-00----------555-333-00----------555-777--|
A|--555-333-00----------333-555-00----------555-333-00----------333-555--|
D|--555-333-00----------333-555-00----------555-333-00-------------------|

  Intro/Verse  Guitar 2
e|-----------------------------------------------------------------------|
B|-------------66666666------------66666666------------66666666----------|
G|-------------55555555------------55555555------------55555555----------|
D|-----------------------------------------------------------------------|
A|-----------------------------------------------------------------------|
D|-----------------------------------------------------------------------|

  Intro/Verse 2  Guitar 1
e|---------------------------------------------------------------|
B|---------------------------------------------------------------|
G|---------------------------------------------------------------|
D|--555-333-00----------333-555-00----------555-333-00-----------|
A|--555-333-00----------333-555-00----------555-333-00-----------|
D|--555-333-00----------333-555-00----------555-333-00-----------|

  Intro/Verse 2  Guitar 2
e|---------------------------------------------------------------|
B|-------------66666666------------66666666------------66666666--|
G|-------------55555555------------55555555------------55555555--|
D|---------------------------------------------------------------|
A|---------------------------------------------------------------|
D|---------------------------------------------------------------|


  Chorus  Guitar 1 & 2
e|--------------------------||--------------------|
B|--------------------------||--------------------|
G|---------577--------[x3]--||---------57---------|
D|--00-355-577-0-353--------||--00-355-57-6~------|
A|--00-355-355-0-353--------||--00-355-35-6~------|
D|--00-355-----0-353--------||--00-355----6~------|


[PLAY VERSE]

  
  Chorus 2  Guitar 1 & 2
e|--------------------------||---------------|
B|--------------------------||---------------|
G|---------577--------[x3]--||---------57----|
D|--00-355-577-0-353--------||--00-355-57-6--|
A|--00-355-355-0-353--------||--00-355-35-6--|
D|--00-355-----0-353--------||--00-355----6--|

  Chorus 2  Guitar 1
e|--------------------------||---------------------------------------|
B|--------------------------||---------------------------------------|
G|---------577--------[x2]--||---------577---------------------------|
D|--00-355-577-0-353--------||--00-355-577-0-353-00-355-1012-6~------|
A|--00-355-355-0-353--------||--00-355-355-0-353-00-355-1012-6~------|
D|--00-355-----0-353--------||--00-355-----0-353-00-355-1012-6~------|

  Chorus 2  Guitar 2
e|--------------------------||-------------------------------------|
B|--------------------------||-------------------------------------|
G|---------577--------[x2]--||--77-777-777-5-565-77-777-77---------|
D|--00-355-577-0-353--------||-----------------------------6~------|
A|--00-355-355-0-353--------||--55-555-555-3-343-55-555-55-6~------|
D|--00-355-----0-353--------||-----------------------------6~------|


  Bridge  Guitar 1
e|---------------------------------------|
B|---------------------------------------|
G|--77-7-7-7-77-7-7-7-77-7-7-7-77-7-7-7--|
D|---------------------------------------|
A|--55-5-5-5-55-5-5-5-55-5-5-5-55-5-5-5--|
D|---------------------------------------|

  Bridge  Guitar 2
e|-------------------------------------------------|
B|-------------------------------------------------|
G|-------------------------------------------------|
D|-------------------------------------------------|
A|--5-5-5-55-10-10-10-1010-11-11-11-1111-6-6-6-66--|
D|-------------------------------------------------|

  Bridge 2  Guitar 1 & 2
e|---------------------------------------------|
B|---------------------------------------------|
G|--7777--------------------7777---------------| x2
D|--7777-6666-33333---------7777-6666-333-1-1--|
A|--5555-6666-33333---------5555-6666-333-1-1--|
D|-------6666-33333-13\\\\-------6666-333-1-1--|

  Bridge 3  Guitar 1 & 2
e|--------------------------------------------------------------------------------|
B|--------------------------------------------------------------------------------|
G|-----------------8888---------------------------------8888----------------------|
D|--000--555--6666-8888-000-555-6666-1-1-000--555--6666-8888-000-555-6-6-6-6-6-6--|
A|--000--555--6666-6666-000-555-6666-1-1-000--555--6666-6666-000-555-6-6-6-6-6-6--|
D|--000--555--6666------000-555-6666-1-1-000--555--6666------000-555-6-6-6-6-6-6--|


Verse 2  Guitar 1
e|------------------------------------------------------------|
B|------------------------------------------------------------|
G|------------------------------------------------------------|
D|--555-333-0-00000000-333-555-0-00000000-555-333-0-00000000--|
A|--555-333-0-00000000-333-555-0-00000000-555-333-0-00000000--|
D|--555-333-0-00000000-333-555-0-00000000-555-333-0-00000000--|
              ........           ........           ........


  Outro  Guitar 1 & 2
e|---------------------------------------------|
B|---------------------------------------------|
G|--7777--------------------7777---------------| x6
D|--7777-6666-33333---------7777-6666-333-1-1--|
A|--5555-6666-33333---------5555-6666-333-1-1--|
D|-------6666-33333-13\\\\-------6666-333-1-1--|





Comments


Popular Gallows tabs & chords
Black Eyes Bass Tabs
Misery 2 Bass Tabs
Staring At The Rude Bois 3 Bass Tabs
The Riverbed 2 Bass Tabs
Come Friendly Bombs Tabs
In The Belly Of A Shark Tabs
Misery Tabs
Mondo Chaos Tabs
Rolling With The PunchesIntro Tabs
Staring At The Rude Bois Tabs


Song lyrics



↑ Back to top | Tablatures and chords are parodies/interpretations of the original songs. You may use it for private study, scholarship, research or language learning purposes only
© 2014 AZChords.com Contact us | Privacy policy | DMCA | Add/correct tabs | Request tabs | Top 50 tabs