» » »

Gallows, Black Eyes Bass tabs (ver.1)

Artists:  A B C D E F G H I J K L M N O P Q R S T U V W X Y Z # 

Black Eyes Bass tabs (ver.1)

Gallows Tabs
 Rating:
4/5 (4 votes)
Black Eyes lessons Tabs too difficult? Try these video lessons and learn fast
                -------------------------------------------------------------------------------
-------------------------------------------------------------------------------


note: Hey, just decided to quickly tab this song, very disapointed at the
lack of Gallows Bass tabs online and want to help out. I don't tab much so
either deal with it or figure it out yourself. Oh and if you wanna hear some
of the music I play (not like Gallows amusingly enough) 


Tuning:D

Verse (part 1)
G|---------------------------------------------------------------------------|
D|---------------------------------------------------------------------------|
A|--------------------------------------333-555------------------------------|
E|-555-333-00---333-555-00--555-333-00---------------------------------------|

Verse (part 2)
G|---------------------------------------------------------------------------|
D|---------------------------------------------------------------------------|
A|---------------------------------------------------------------------------|
E|-5553330033333333-3335550033333333-5553330033333333----------------12\-----|

Chorus
G|---------------------------------------------------------------------------|
D|---------------------------------------------------------------------------|
A|--------355------(x3)----------35------------------------------------------|
E|-00-355-----0353--------00-355----6~---------------------------------------|

Verse (part 1)
G|---------------------------------------------------------------------------|
D|---------------------------------------------------------------------------|
A|--------------------------------------333-555------------------------------|
E|-555-333-00---333-555-00--555-333-00---------------------------------------|

Verse (part 2)
G|---------------------------------------------------------------------------|
D|---------------------------------------------------------------------------|
A|---------------------------------------------------------------------------|
E|-5553330033333333-3335550033333333-5553330033333333----------------12\-----|

Chorus (dont let the 6th ring first time, just repeat phrase, on last one you can let it ring)
G|---------------------------------------------------------------------------|
D|---------------------------------------------------------------------------|
A|--------355------(x3)-----------35-----------------------------------------|
E|-00-355-----0353--------00-355----6~---------------------------------------|

Pre-Bridge (in background while guitar plays)
G|---------------------------------------------------------------------------|
D|---------------------------------------------------------------------------|
A|----------------(or)----------------------555-10101010-11111111-6666-------|
E|-0~-------------------000-5555-6666-11111----------------------------------|

Bridge (part 1)
G|---------------------------------------------------------------------------|
D|---------------------------------------------------------------------------|
A|-5555------------------5555------------------------------------------------|
E|-----6666-3333/-1212\-------6666-3333/-1-1--------------------------------|

Bridge (Part 2)
G|---------------------------------------------------------------------------|
D|---------------------------------------------------------------------------|
A|---------------------------------------------------------------------------|
E|--0000-5555-6666-12121212-0000-5555-6666/-1-1------------------------------|


G|---------------------------------------------------------------------------|
D|---------------------------------------------------------------------------|
A|---------------------------------------------------------------------------|
E|--0000-5555-6666-12121212-0000-5555-6-6-6-66-6-6\--------------------------|

Verse (alternate)
G|---------------------------------------------------------------------------|
D|---------------------------------------------------------------------------|
A|---------------------------------------------------------------------------|
E|-555-333-00-0-00-000--333-555-00-0-00-000--555-333-00-0-00-000-(pause)-----|

Bridge (part 1) (repeat til end)
G|---------------------------------------------------------------------------|
D|---------------------------------------------------------------------------|
A|-5555------------------5555------------------------------------------------|
E|-----6666-3333/-1212\-------6666-3333-1-1----------------------------------|


| /  slide up
| \  slide down
| h  hammer-on
| p  pull-off
| ~  vibrato
| +  harmonic
| x  Mute note
===============================================================================
            
Submit corrections

comments powered by Disqus
↑ Back to top | Gallows Bass for Black Eyes. Lyrics for acoustic guitar and electric guitar. Tablatures and chords are parodies/interpretations of the original songs. You may use it for private study, scholarship, research or language learning purposes only