» » »

Gallows, Abandon Ship Tabs (ver.4)

Artists:  A B C D E F G H I J K L M N O P Q R S T U V W X Y Z # 

Abandon Ship Tabs (ver.4)

Gallows Tabs
 Rating:
4.3/5 (6 votes)
Abandon Ship lessons Tabs too difficult? Try these video lessons and learn fast
                My first tab so ermm don't be harsh dudes =]

Oh and listen for the rhythms and the palm-muting and that...easy enough

Drop D Tuning:

e|-------------------------------------------------------------------------|
B|-------------------------------------------------------------------------|
G|-------------------------------------------------------------------------|
D|-00000000---8888888771010101010------------------------------------------|
A|-00000000---8888888771010101010------------------------------------------|
E|-00000000---8888888771010101010------------------------------------------|

"The SS death lost everything..."  0:35

e|-------------------------------------------------------------------------|
B|-------------------------------------------------------------------------|
G|-------------------------------------------------------------------------|
D|--8----7----10-----8-------00--0--0---88888888877777771010101010108888888|
A|--8----7----10-----8-------00--0--0---88888888877777771010101010108888888|
E|--8----7----10-----8-------00--0--0---88888888877777771010101010108888888|


Repeat those two parts when necessary...


Guitar break

e|-------------------------------------------------------------------------|
B|-------------------------------------------------------------------------|
G|-------------------------------------------------------------------------|
D|-0-0-0-0-0----0---8---87-5---7---3---0---8---87-5---7---3----------------|
A|-0-0-0-0-0----0---8---87-5---7---3---0---8---87-5---7---3----------------|
E|-0-0-0-0-0----0---8---87-5---7---3---0---8---87-5---7---3----------------|

e|-------------------------------------------------------------------------|
B|-------------------------------------------------------------------------|
G|-------------------------------------------------------------------------|
D|--0----------------------------------0-----------------------------------|
A|--0------12-10-----10-8-------10-12--0------12-10------10-8-----10-12----|
E|--0--0-0-------0-0-------0-0---------0--0-0--------0-0------0-0----------|

e|-------------------------------------------------------------------------|
B|-------------------------------------------------------------------------|
G|-------------------------------------------------------------------------|
D|--8----------------------------------5--7-5---7--7-5---3--5-7------------|
A|--8------12-10-----10-8-----10-12----5--------7--------3-----------------|
E|--8--0-0-------0-0------0-0----------5--------7--------3-----------------|




| /  slide up
| \  slide down
| h  hammer-on
| p  pull-off
| ~  vibrato
| +  harmonic
| x  Mute note
===============================================================================
            
Submit corrections

comments powered by Disqus
↑ Back to top | Gallows Tabs for Abandon Ship. Lyrics for acoustic guitar and electric guitar. Tablatures and chords are parodies/interpretations of the original songs. You may use it for private study, scholarship, research or language learning purposes only