» » »

Gallagher Rory, They Dont Make Them Like You Bass tabs (ver.1)

Artists:  A B C D E F G H I J K L M N O P Q R S T U V W X Y Z # 

They Dont Make Them Like You Bass tabs (ver.1)

Gallagher Rory Tabs
Rating:
0/5 (0 votes)
They Dont Make Them Like You lessons Tabs too difficult? Try these video lessons and learn fast
                INTRO:

G|-----------------------------------------------------------------------------
D|------------------------------------7--5------5-----------------------------
A|--5------5--------------5------------------8------8---7---8---7---5---4-
E|------3--------6---5----------3-------------------------------------------

VERSE:

G|----------------------------------------------------------------
D|-------------------------5--------------------------------------
A|---5--7--8--5---7--8-----7---5--7--8--5--------------------
E|-----------------------------------------------5--7--8--5------

G|----------------------------------------------------------------
D|-------------------------5--------------------------------------
A|---5--7--8--5---7--8-----7---5--7--8--5--------------------
E|-----------------------------------------------5--7--8--7------


G|------------------------------------------------------------------
D|-------8--7--5-----5----------------------7------------7-8----
A|-------------------------8--7----5--7--8-----5--7--8-----------
E|---6-------------5------------------------------------------------

G|---7---10---7h10p7---------------------------------------------
D|-------------------------8--7--5--------------------7----------  With last guitarsolo  	
A|------------------------------------8----5--7--8---------------- play this part 3x
E|-------------------------------------------------------5-5------ than go to ending	
INTERLUDE

G|----------------------------------------------------------------
D|--------55---------7--------------55----------7----------7------
A|---55-------55-------7-------55---------55-------7--------------
E|-------------------------5----------------------------5---------

G|-------------------------------------------------------------
D|-----5------------5------------7--5-----5---7--5-----5-------
A|--------8--5--8-----8--5--8---------8-------------8----------
E|-------------------------------------------------------------

G|------------------------------------------------------------------
D|----------------------------------7---5---------------------------
A|---8--5-----5---8-5----5--------------8---5-----------------------
E|----------8--------------8-------------------------5---3---1---0--

ENDING

G|---------------------------------------------------------------------19-
D|------------------------7--5-----5--------------------------------------
A|---5-----5--------5-----------8-------8--7---8--7--5-7--5--4--5---17----
E|------3-----6--5------3-------------------------------------------------
            

comments powered by Disqus
↑ Back to top | Gallagher Rory Bass for They Dont Make Them Like You. Lyrics for acoustic guitar and electric guitar. Tablatures and chords are parodies/interpretations of the original songs. You may use it for private study, scholarship, research or language learning purposes only