» » »

Gallagher Rory, Follow Me Tabs (ver.1)

Artists:  A B C D E F G H I J K L M N O P Q R S T U V W X Y Z # 

Follow Me Tabs (ver.1)

Gallagher Rory Tabs
Rating:
0/5 (0 votes)
Follow Me lessons Tabs too difficult? Try these video lessons and learn fast
                Rory gallagher - Follow me
Play with bluesy distortion, boss BD-2 style, clean for the intro, and 
slightly heavier for the main song.

Intro:
E|--------------------------------------------------------------------------
B|--------------------------------------------------------------------------
G|------------------10-10-10---------888--------666666----------------------
D|10-10-10-10-10-10-10-10-10--888888-888-666666-666666----------------------
A|10-10-10-10-10-10--8--8--8--888888-666-666666-444444----------------------
E|-8--8--8--8--8--8-----------666666-----444444-----------------------------

E|--------------------------------------------------------------------------
B|--------------------------------------------------------------------------
G|--------------------------------------------------------------------------
D|-5-/-6--5-/-6--5-/-6--5-/-6--5-/-6--5-/-6--5-/-6--5-/-6-------------------
A|-5-/-6--5-/-6--5-/-6--5-/-6--5-/-6--5-/-6--5-/-6--5-/-6-------------------
E|-3-/-4--3-/-4--3-/-4--3-/-4--3-/-4--3-/-4--3-/-4--3-/-4-------------------

Leading into verse:
E|------------------------------------------------------------------------
B|--------5---------------------------------------------------------------
G|10-8--8-7---------------------------------------------------------------
D|10-8--8-7---------------------------------------------------------------
A|-8-6--6-5--(Times 2)----------------------------------------------------
E|------------------------------------------------------------------------

Verse (Play times four)
E|------------------------------------------------------------------------
B|------------------------------------------------------------------------
G|-------5----------------------------------------------------------------
D|-5--3--5----------------------------------------------------------------
A|-5--3--3----------------------------------------------------------------
E|-3--1-------------------------------------------------------------------

"Wont you follow me where i'm bound" part.
E|------------------------------------------------------------------------
B|------------------------------------------------------------------------
G|---------------------------------------5-5-5-5-5-------------------------------
D|-3-3-3-3-3-3-12-12-12-12-12-12---------5-5-5-5-5----------------------------------
A|-3-3-3-3-3-3-12-12-12-12-12-12---------3-3-0-0-0----------------------------------
E|-1-1-1-1-1-1-10-10-10-10-10-10---------------------------------------------
"Times go burrowin' down" Part.
E|---------------------------------------------------------------------------------
B|---------------------------------------------------------------------------------
G|----------7-7-7-7----------------------------------------------------------------
D|-3-3-3-3--7-7-7-7-5-5-5-5--------------------------------------------------------
A|-3-3-3-3--5-5-5-5-5-5-5-5--------------------------------------------------------
E|-1-1-1-1----------3-3-3-3--------------------------------------------------------

Those are the main parts tabbed out, it's a dead easy song to play. 
Tab is allmost 100% accurate.
Slán, 
Cian
            
Submit corrections

comments powered by Disqus
↑ Back to top | Gallagher Rory Tabs for Follow Me. Lyrics for acoustic guitar and electric guitar. Tablatures and chords are parodies/interpretations of the original songs. You may use it for private study, scholarship, research or language learning purposes only