>
 >
Calling Card

Calling Card Guitar Tabs

Gallagher Rory - Calling Card chords, tabs, tablatures, lyrics

Guitar lessons | Add/correct | Request | Top 50 tabs Artists:  A B C D E F G H I J K L M N O P Q R S T U V W X Y Z 0-9

Calling Card Guitar Tabs – Gallagher Rory

CD, Sheet music, Poster

Do you like Calling Card? Share with your friends now
Tabs
PROPS GO TO: Rob Watson

Calling Card by Rory Gallagher from the album Calling Card


Intro

  (Bass                        ) Guitar 
  Gm7  C  same 2 chords repeated for all solos
E|---------|---------|---------|----3--|-------|-----------------------------|
B|---------|---------|---------|-------|-------|-----------------------------|
G|---------|---------|---------|----5b7|5p3----|-------3-5-(5pb6)r5-3-5-3----|
D|---------|---------|---------|-------|----5--|-----5--------------------5-5|
A|--3---5-3|--3---5-3|--3---5-3|-------|-------|-----------------------------|
E|3--------|3--------|3--------|-------|-------|-----------------------------| 

E|----------|---------------------|--------------------|---------------------------|
B|----6----6|---6-8-8-8-8-8-8-8-8b|10r8--(8pb9)r8p6----|---------------------------|
G|-s7---s7--|s7-------------------|-----------------7-5|3-5-5b6r5p3----------------|
D|----------|---------------------|--------------------|------------5-5p3---3------|
A|----------|---------------------|--------------------|------------------5---5s3-1|
E|----------|---------------------|--------------------|---------------------------| 

                                                                        Muted
E|-----------------|-----------3------|---10|----10----10--------------------|
B|-----------------|-----------3------|---11|h13-11h13-11h13--13p11p10-----11|
G|-----------------|3bss-------5b6r5p3|5----|----------------------------12--|
D|--------------3-5|------------------|-----|--------------------------------|
A|------1-3-3s5----|------------------|-----|--------------------------------|
E|3---3------------|------------------|-----|--------------------------------| 

            muted                                                      getting sharper  
E|10h13p10---10--13p10---6p5|3h5p3------|---------------------|-------------------|
B|----------11--------------|------6-3--|(8pb10)r8-6tr-------6|8-8-8-8-8-8-8-8-8-8|
G|--------------------------|-----------|----------------5-7--|-------------------|
D|--------------------------|-----------|---------------------|-------------------|
A|--------------------------|-----------|---------------------|-------------------|
E|--------------------------|-----------|---------------------|-------------------| 
               Well the rain etc
E|------------|--------------------|
B|8b11tr------|--------------------|
G|------------|--------------------|
D|------------|--------------------|
A|------------|--------------------|
E|------------|--------------------| 

Solo 1

  1.29
  hurt
  Gm7    C   etc
E|--------------|---|---------------------------|---|10----|10----10----10----10---|
B|--8-----8-----|---|---------------------------|---|11h13-|------11h13-11h13-11h13|
G|--5h6---5-3---|---|--5b6-3--------------------|---|------|10h12------------------|
D|------------5-|---|--------5------------------|---|------|-----------------------|
A|--------------|---|------------8p5h8p5s3---3--|---|------|-----------------------|
E|--------------|---|----------------------6----|---|------|-----------------------| 

E|10----10--13p10-8|(8pb9)r8p6------|6-6p5---------------|----------------3-6--------|
B|11h13------------|-----------8----|------8p6-----------|--6---6-----3-6------------|
G|-----------------|-------------5-7|----------7---------|--5h7-5-3-5----------------|
D|-----------------|----------------|--------------------|---------------------------|
A|-----------------|----------------|--------------------|---------------------------|
E|-----------------|----------------|--------------------|---------------------------| 

E|-----------------|15----------------13b|15--r13-10--|13b15-13-10------------------|
B|8-8-8b10---6-8p6-|13h14-13h14-13-------|------------|------------(13pb14)r13-11---|
G|-----------------|------12----12-------|------------|---------------------------12|
D|-----------------|---------------------|------------|-----------------------------|
A|-----------------|---------------------|------------|-----------------------------|
E|-----------------|---------------------|------------|-----------------------------| 

E|13b15--13b15--13b15|13b15--13b15--13b15-13b15|Piano solo starts
B|-------------------|-------------------------|
G|-------------------|-------------------------|
D|-------------------|-------------------------|
A|-------------------|-------------------------|
E|-------------------|-------------------------| 

Solo 2

2.39                   Clean up that mess
E|-----3--------------|--------------------|-------------------------|------------------|
B|----3--6-3----------|---------5---8-8----|8------------------------|------------------|
G|5b7--------5b6r5p3--|---------5h7-5-5h6--|5h6-5-3---5b6r5p3-5------|3-----------------|
D|-------------------5|--------------------|--------5-----------5p3h5|--5p3h5-3h5-------|
A|--------------------|--------------------|-------------------------|-------------3s5s3|
E|--------------------|--------------------|-------------------------|------------------| 

E|-------------|--------------------|--------------------|-------------|
B|-------------|--------------------|--------------------|-------------|
G|-----3-------|-------3------------|-----3-------5b6r5-3|-------------|
D|-------5----5|-----3---5----------|-------5------------|5------------|
A|--s5------5--|--s4----------------|--s5----------------|-------------|
E|3------------|--------------------|--------------------|-------------| 
   
End Solo
  hurt
3:40
E|-----------------|-----------|---------|------|6-8-8b9r8p6---|--------------------|
B|----8---8--------|-6b8--3----|---------|6b8---|-------------8|--8p6--------------6|
G|----5h7-7p6-5p3--|--------5b7|5p3h5p3--|------|--------------|------7--7p5---5-7--|
D|----------------5|-----------|--------5|------|--------------|-------------8------|
A|-----------------|-----------|---------|------|--------------|--------------------| 
E|-----------------|-----------|---------|------|--------------|--------------------|

E|--------------------|--------6-8|8b9-6-13|--10-----|------10---------|--------------|
B|8-8b10r8-8b10r8-8b11|----6h8----|------11|--11h13--|11----10h11------|--------------|
G|--------------------|-----------|--------|---------|10h12-------10h12|--------10-12-|
D|--------------------|-----------|--------|---------|-----------------|--10h12-------|
A|--------------------|-----------|--------|---------|-----------------|--------------|
E|--------------------|-----------|--------|---------|-----------------|--------------| 

E|------------------|-------------------------------------|----------------|
B|----11------------|----13b15r13-11h13p11----------------|----------------|
G|-12----11h12-11h12|-12-------------------12--10----10---|--------------10|
D|------------------|--------------------------10h12-10h12|10---------12---|
A|------------------|-------------------------------------|---13-10--------|
E|------------------|-------------------------------------|----------------| 

E|----------------|----------|----15---|-----------|-----18b20|18----|------------|
B|---11-----------|11--------|----13h14|13---------|--15------|------|-------18b20|
G|12----12---11s12|---12-12--|---------|---15-12---|----------|------|------------|
D|----------------|----------|---------|-----------|----------|------|------------|
A|----------------|----------|---------|-----------|----------|------|------------|
E|----------------|----------|---------|-----------|----------|------|------------| 

E|---------------------------------|--------------------|----------|----------------|
B|18b20-18b20-18b20r18b20r18--15---|---------18b20r18b20|18p15-----|-----18b20-18b20|
G|-------------------------------17|--------------------|------17--|----------------|
D|---------------------------------|--------------------|----------|----------------|
A|---------------------------------|--------------------|----------|----------------|
E|---------------------------------|--------------------|----------|----------------| 
                                                   4.41
E|------------|----------------|------------------|-------------------------|
B|18b20p15----|-----18b20-18b20|18b20p15----------|----11----11-------------|
G|---------17-|----------------|---------17-------|----10h13-10h13--------10|
D|------------|----------------|------------------|-----------------10h12---|
A|------------|----------------|------------------|-------------------------|
E|------------|----------------|------------------|-------------------------| 

E|------------------------------------------|--------------|------------------|
B|---11----11-13-13b15r13-11-13-11-13--13p11|-----13h14--13|13h14-13-13h14--13|
G|12----12----------------------------------|12---12-----12|12----12-12-----12|
D|------------------------------------------|--------------|------------------|
A|------------------------------------------|--------------|------------------|
E|------------------------------------------|--------------|------------------| 

E|------------------------|---------------------------|---------------------------|
B|13h14-13p11----13h14--13|13h14-13p11----13h14--13-11|13h14-13-11--13h14-13p11---|
G|12----12----12-12-----12|12----12----12-12-----12-12|12----12-12--12----12----12|
D|------------------------|---------------------------|---------------------------|
A|------------------------|---------------------------|---------------------------|
E|------------------------|---------------------------|---------------------------| 

E|--------------|--------------------|--------------13b15|
B|13h14-13-11---|--13h14-13-13p11----|11h13p11-----------|
G|12----------12|--12----12-------12-|---------12--------|
D|--------------|--------------------|-------------------|
A|--------------|--------------------|-------------------|
E|--------------|--------------------|-------------------|
 
E|15----15-18----15------------------------------|
B|---18-------18----18-15----15------------------|
G|------------------------17----17b19r17-15----15|
D|------------------------------------------17---|
A|-----------------------------------------------|
E|-----------------------------------------------| 
                                                                          Freely
E|------------------|-------------------------------|----|---|s3------------------------|
B|----------15------|-------------------------------|----|---|---6-3-s3--------6-8--8b10|
G|17p15-----15h17-15|------15------17b18r17b18-17p15|----|---|----------3-5-s7----------|
D|------17----------|17----15h17--------------------|17--|---|--------------------------|
A|------------------|-------------------------------|----|---|--------------------------|
E|------------------|-------------------------------|----|---|--------------------------|

E|-----------------------------------------------|
B|8b10-8b10-8b10-8b10r8-6------------------------|
G|------------------------7---3-5p3h5p3h5p3------|
D|--------------------------5---------------5p3h5|
A|-----------------------------------------------|
E|-----------------------------------------------|





Comments


Popular Gallagher Rory tabs & chords
They Dont Make Them Like You Bass Tabs
Shadow Flame Chords
Signals Chords
A Million Miles Away Tabs
Bad Penny Tabs
Edged In Blue Tabs
Laundromat 1 Tabs
Moon Child Tabs
Shadow Play (Solo) Tabs
Tattood Lady Tabs


Song lyrics



↑ Back to top | Tablatures and chords are parodies/interpretations of the original songs. You may use it for private study, scholarship, research or language learning purposes only
© 2014 AZChords.com Contact us | Privacy policy | DMCA | Add/correct tabs | Request tabs | Top 50 tabs