» » »

The Struggle Tabs (ver.1)

Artists:  A B C D E F G H I J K L M N O P Q R S T U V W X Y Z # 

The Struggle Tabs (ver.1)

Galactic Cowboys
Rating:
0/5 (0 votes)

Hard to play? Try these video lessons and learn fast.
                

This song is drop D.  Pay no attention to the top 2 strings, this tab is for a 4
 string bass.

-----------------|-----------------|------------------------------------------|
-----------------|-----------------|------------------------------------------|
-----------------|-----------------|------------------------------------------|
-----------------|-----------------|-12x--------------------------------------|
-------5---------|-----------------|------------------------------------------|
-0-0-0-------6---|---5-----6---5---|------------------------------------------|
 Intro(above)/Intro2(below)

-----------------|-----------------|------------------------------------------|
-----------------|-----------------|------------------------------------------|
-----------------|-----------------|------------------------------------------|
-----------------|-----------------|-4x---------------------------------------|
-------5---------|-----------------|------------------------------------------|
-0-----------6---|---5-----6---5---|------------------------------------------|
 Intro(8x, 4th and 8th times stop on second Ab)/Verse(below)

-----------------|-----------------|--|-----------------|----------------|----|
-----------------|-----------------|--|-----------------|----------------|----|
-----------------|-----------------|--|-----------------|----------------|----|
-----------------|-----------------|4x|-----------------|----------------|2x--|
-------5---------|-----------------|--|-------3---------|----------------|----|
-0-0-0-------6---|---5-----6---5---|--|-0-0-0-------4---|---3-----4---3--|----|


-----------------|-----------------|------------------------------------------|
-----------------|-----------------|------------------------------------------|
-----------------|-----------------|------------------------------------------|
-----------------|-----------------|-2x---------------------------------------|
-------5---------|-----------------|------------------------------------------|
-0-0-0-------6---|---5-----6---5---|------------------------------------------|
 Verse(again)/Chorus(below)

-----------------|-----------------|-----------------|-----------------|------|
-----------------|-----------------|-----------------|-----------------|------|
-----------------|-----------------|-----------------|-----------------|------|
-----------------|-----------------|-----------------|-----------------|-2x---|
-----------------|-----------------|-----------------|-----------------|------|
-1-----1-----1---|-----1---1-------|-3-----3-----3---|-----3---3-------|------|
 Chorus2(below)

-----------------|-----------------|------------------------------------------|
-----------------|-----------------|------------------------------------------|
-----------------|-----------------|------------------------------------------|
-----------------|-----------------|-2x---------------------------------------|
-------5---------|-----------------|------------------------------------------|
-0-0-0-------6---|---5-----6---5---|------------------------------------------|
 Chorus(3x)/Chorus3(below)

-----------------|-----------------|-----------------|-----------------|------|
-----------------|-----------------|-----------------|-----------------|------|
-----------------|-----------------|-----------------|-----------------|------|
-----------------|-----------------|-----------------|-----------------|------|
-----------------|-----------------|-----------------|-----------------|------|
-6-------7---6---|-----6---6-------|-6-8---8-8---8---|-----8-8---------|------|
 Intro(4x)/Verse/Chorus/Chorus2/Chorus(3x)/Chorus3(2x)/Intro(12x)/pause/

-----------------|-----------------|-----------------|-----------------|------|
-----------------|-----------------|-----------------|-----------------|------|
-----------------|-----------------|-----------------|-----------------|------|
-----------------|-----------------|-----------------|-----------------|------|
-----------------|-----------------|-----------------|-----------------|------|
-1-----1-----1---|-----1---1-------|-3-----3-----3---|-----3---3-------|------|
 Intro(16x)/Intro2/Chorus(3x)/Chorus3(2x)/Middle Section(above and below)

-----------------|-----------------|-----------------|-----------------|------|
-----------------|-----------------|-----------------|-----------------|------|
-----------------|-----------------|-----------------|-----------------|------|
-----------------|-----------------|-----------------|-----------------|------|
-----------------|-----------------|-----------------|-----------------|------|
-6-----6-----6---|-----6---6-------|-8-----8-----8---|-----8---8-------|------|


-----------------|-----------------|-----------------|-----------------|------|
-----------------|-----------------|-----------------|-----------------|------|
-----------------|-----------------|-----------------|-----------------|------|
-----------------|-----------------|-----------------|-----------------|------|
-----------------|-----------------|-----------------|-----------------|------|
-1-----1-----1---|-----1---1-------|-3-----3-----3---|-----3---3-------|------|


-----------------|-----------------|-----------------|-----------------|------|
-----------------|-----------------|-----------------|-----------------|------|
-----------------|-----------------|-----------------|-----------------|------|
-----------------|-----------------|-----------------|-----------------|------|
-----------------|-----------------|-----------------|-----------------|------|
-6-----6-----6---|-----6---6-------|-8-----8-----8---|-9---------------|------|
 Intro(8x)/Outro(below, not in time)

------------------------------------------------------------------------------|
------------------------------------------------------------------------------|
------------------------------------------------------------------------------|
------------------------------------------------------------------------------|
------------------------------------------------------------------------------|
-1-1-1--1-1-1--3-3-3--3-3-3---6-----------------------------------------------|
            
Hard to play? Try these video lessons and learn fast. | Correct




comments powered by Disqus
↑ Back to top | Tablatures and chords are parodies/interpretations of the original songs. You may use it for private study, scholarship, research or language learning purposes only