» » »

Idle Minds Tabs (ver.1)

Artists:  A B C D E F G H I J K L M N O P Q R S T U V W X Y Z # 

Idle Minds Tabs (ver.1)

Galactic Cowboys
Rating:
0/5 (0 votes)
Tabs too difficult? Try these video lessons and learn fast.
                

Pay no attention to the top 2 strings.  Drop D tuning.  Have fun!

-----|-------------------------|----------------------------------------------|
-----|-------------------------|----------------------------------------------|
-----|-------------------------|----------------------------------------------|
-----|-------------------------|-8x-------------------------------------------|
-----|-------------------------|----------------------------------------------|
-0-3-|-7-7-7-6-6-0-3-3-5-5-0-3-|----------------------------------------------|
 Intro(above)/Verse(same as Intro)(8x)/Verse/Chorus(below)

-------------|-----------------|-----------------|-----------------|----------|
-------------|-----------------|-----------------|-----------------|----------|
-------------|-----------------|-----------------|-----------------|----------|
-------------|-----------------|-----------------|-----------------|----------|
-5-0-3---0---|-----------------|-----5-0-3---0---|-----------------|----------|
-------5---3-|---3-0-5---5-5-3-|-0-0-------5---3-|---3-0-6---6-6-3-|----------|


-----------------|-----------------|-----------------|-----------------|------|
-----------------|-----------------|-----------------|-----------------|------|
-----------------|-----------------|-----------------|-----------------|------|
-----------------|-----------------|-----------------|-----------------|------|
-----5-0-3---0---|-----------------|-----------------|-----------------|------|
-0-0-------5---3-|---3-0-5---5-5-3-|---3-3---3-3-3-5-|---5-5---5-5-5---|------|
 Intro(4x)/Verse(8x)/Chorus/Middle Section(below)

-----------------|-----------------|-----------------|-----------------|------|
-----------------|-----------------|-----------------|-----------------|------|
-----------------|-----------------|-----------------|-----------------|------|
-----------------|-----------------|-----------------|-----------------|-3x---|
-----------------|-----------------|-----------------|-----------------|------|
-7-7-7-6-6-6-5-5-|-5-4-4-4-3-3-3---|-1-1-1-1-1-1-1-1-|-1-1-1-1-1-1-1-1-|------|
 (guitar goes higher while bass goes lower and meet at Eb)

-----------------|-----------------|-----------------|-----------------|------|
-----------------|-----------------|-----------------|-----------------|------|
-----------------|-----------------|-----------------|-----------------|------|
-----------------|-----------------|-----------------|-----------------|------|
-----------------|-----------------|-----------------|-----------------|------|
-7-7-7-6-6-6-5-5-|-5-4-4-4-3-3-3---|-1-1-1-1-1-1-1-1-|-3-3-3-3-3-3-3-3-|------|
 Intro(during solo, 4x)/Chorus/Chorus/Add on(below)

-------------------|-----------------|----------------------------------------|
-------------------|-----------------|----------------------------------------|
-------------------|-----------------|----------------------------------------|
-------------------|-----------------|----------------------------------------|
-------------------|-----------------|----------------------------------------|
---3-3---3-3-3-3-6-|---6-6-6-6-6-6-6-|----------------------------------------|
 Intro(8x)
            
Tabs too difficult? Try these video lessons and learn fast.


comments powered by Disqus
↑ Back to top | Tablatures and chords are parodies/interpretations of the original songs. You may use it for private study, scholarship, research or language learning purposes only