» » »

Two Clowns Bass tabs (ver.1)

Artists:  A B C D E F G H I J K L M N O P Q R S T U V W X Y Z # 

Two Clowns Bass tabs (ver.1)

Galactic
Rating:
0/5 (0 votes)

Hard to play? Try these video lessons and learn fast.
                Feel free to correct any mistakes and email them to me.


Standard Tuning


Fig.1 - This is the main part of the song, it's basicially 
just a D note played in different octaves and in different 
rhythms. I just provided a simple basic pattern but feel 
free to funk it up yourself and add little fills in at the
end of it. 

G:--------7------------7-------|  
D:-----------------------------|
A:----5-------5-5---5-----5----| 
E:-----------------------------| 





Fig. 2
G:--------------|
D:--------------|
A:--5-----------|
E:-----5--3-----|





Fig. 3
G:-----------------------3--|            G-----------------------
D:--3-4-5--5-3--5-3--5-3----|            D---3-4-5--5-3-5--------
A:--------------------------|            A-----------------------
E:--------------------------| X3 then    E-----------------------





Fig. 4a
G:------------------|
D:------------------|
A:----------1--3--4-|
E:--1--3--4---------|





Fig.4b - last run of song
G:--------------------|
D:--------------------|
A:----------1--3--4--5|
E:--1--3--4-----------|
            
Hard to play? Try these video lessons and learn fast. | Correct




comments powered by Disqus
↑ Back to top | Tablatures and chords are parodies/interpretations of the original songs. You may use it for private study, scholarship, research or language learning purposes only