» » »

Galactic, Church Bass tabs (ver.2)

Artists:  A B C D E F G H I J K L M N O P Q R S T U V W X Y Z # 

Church Bass tabs (ver.2)

Galactic Tabs
 Rating:
4/5 (4 votes)
Church lessons Tabs too difficult? Try these video lessons and learn fast
                -------------------------------------------------------------------------------
     Church - Galactic
-------------------------------------------------------------------------------

Tuning:EADG

First Bit:

G|---------------|---------------------6---7----|
D|--------5~-----|.------5--------5/7---------.-|
A|----5p7----7p5-|.---5p7---7p5-4~---4---5----.-|
E|---------------|--0~--------------------------|

Turnaround:
G|--7---9---------------------------------------|
D|--------5---7---------------------------------|
A|--------------5---7---------------------------|
E|------------------------X/X-(slide)-----------|

when it changes, it is this(with random hammer-ons every once in a while)
G|-----4----------2-3-4-3p2-----  --------------|
D|--------2-3-4~------------4p3-2-0-------------|
A|--2-------------------------------------------|
E|----------------------------------------------|

Those are the two main ideas of the song, they swap every once in a while, and sometimes 
are alternated ever few bars or so. Just listen to the recording to see what I mean.

| /  slide up
| \  slide down
| h  hammer-on
| p  pull-off
| ~  vibrato
| +  harmonic
| x  Mute note
===============================================================================
            
Submit corrections

comments powered by Disqus
↑ Back to top | Galactic Bass for Church. Lyrics for acoustic guitar and electric guitar. Tablatures and chords are parodies/interpretations of the original songs. You may use it for private study, scholarship, research or language learning purposes only