>
 >
In Your Eyes

In Your Eyes Guitar Tabs

Gaines Jeffrey - In Your Eyes chords, tabs, tablatures, lyrics

Guitar lessons | Add/correct | Request | Top 50 tabs Artists:  A B C D E F G H I J K L M N O P Q R S T U V W X Y Z 0-9

In Your Eyes Guitar Tabs – Gaines Jeffrey

CD, Sheet music, Poster

Do you like In Your Eyes? Share with your friends now
TabsTabs v2
In Your Eyes (Live version)

Performed by Jeffrey Gaines. Written by Peter Gabriel.


You probably will need the recording to get a really good feel for the
song.  It is on the single of "Headmasters of Mine".
For starters, the primitive chords are:

intro
Bm  A   D   D   (4 times)    (technically, the A is always Asus6)

1st verse
Bm  A   D   D
Bm  A   G   G   (4 times)

bridge
A   A   G   G   (4 times)

G   G   G   G
G   G

chorus
E   E   D   D   (6 times)
E,Esus4,E,Esus4

2nd intro
Bm  A   D   D
Bm  A   D   D

2nd verse(same as 1st)
bridge
chorus

The tab is hard to write because it is very syncopated and so many
of the notes are played quitely while others are louder.  There
even are some instances in this tab where the marked note is hardly
played, if at all.  I put parenthesis around the notes that I thought
were the most de-emphasized.  The "|" line means stop the strings
and/or strum with the strings stopped.

(intro)
E]--2--2||-2--22||-2-220-00332---3-|-320---|
B]--3--3||-3--33||-2-223-33332-----|-3-----|
G]--4--4||-4--44||-2-222-22222-----|-2-----|
D]--4--4||-4--44||-2-220-00000-----|-0-----|
A]--2--2||-2--22||-0-00------------|-------|
E]------||------||-----------------|-------|

E]--2--2||-2--22||-2-220-00332---3-|-320---|
B]--3--3||-3--33||-2-223-33333-----|-3-----|
G]--4--4||-4--44||-2-222-22222-----|-2-----|
D]--4--4||-4--44||-2-220-00000-----|-0-----|
A]--2--2||-2--22||-0-00------------|-------|
E]------||------||-----------------|-------|

E]--2--2||-2--22||-2-220-00332---3-3320----|
B]--3--3||-3--33||-2-223-33333------3------|
G]--4--4||-4--44||-2-222-22222------2------|
D]--4--4||-4--44||-2-220-00000------0------|
A]--2--2||-2--22||-0-00--------------------|
E]------||------||-------------------------|

E]--2--2||-2--22||-2-220-00332---333320----|
B]--3--3||-3--33||-2-223-33333------3------|
G]--4--4||-4--44||-2-222-22222------2------|
D]--4--4||-4--44||-2-220-00000------0------|
A]--2--2||-2--22||-0-00--------------------|
E]------||------||-------------------------|

(1st verse)
E]--2--2||-2--22||-2-220-00332--22--2------|
B]--3--3||-3--33||-2-223-33333--33--3------|
G]--4--4||-4--44||-2-222-22222--22--2------|
D]--4--4||-4--44||-2-220-00000--00--0------|
A]--2--2||-2--22||-0-00--------------------|
E]------||------||-------------------------|
   love				 I get so

E]--2--2||-2--22||-2-22---3333--33-3-0-----|
B]--3--3||-3--33||-2-223--3333--33-3-3-----|
G]--4--4||-4--44||-2-220--0000--00-0-0-----|
D]--4--4||-4--44||-2-220--0000--00-0-0-----|
A]--2--2||-2--22||-0-002---2-2--22-2-2-----|
E]------||------||-----------3---3-3-------|
   lost            sometimes

E]--2--2||-2--22||-2-220-00332--22(2)2-----|
B]--3--3||-3--33||-2-223-33333--33(3)3-----|
G]--4--4||-4--44||-2-222-22222--22(2)2-----|
D]--4--4||-4--44||-2-220-00000--00(0)0-----|
A]--2--2||-2--22||-0-00--------------------|
E]------||------||-------------------------|
   days     pass		   and this

E]--2--2||-2--22||-2-22--3333--33-330------|
B]--3--3||-3--33||-2-223-3333--33-333------|
G]--4--4||-4--44||-2-220-0000--00-000------|
D]--4--4||-4--44||-2-220-0000--00-000------|
A]--2--2||-2--22||-0-002--2-2--22-222------|
E]------||------||----------3---3-33-------|
  emptiness      fills my heart

E]--2--2||-2--22||-2-220--0332--33--320----|
B]--3--3||-3--33||-2-223--3333--33--333----|
G]--4--4||-4--44||-2-222--2222--22--222----|
D]--4--4||-4--44||-2-220--0000--00--000----|
A]--2--2||-2--22||-0-00--------------------|
E]------||------||-------------------------|
          when I want to run away     I

E]--2--2||-2--22||-2-22--3333--33-330------|
B]--3--3||-3--33||-2-223-3333--33-333------|
G]--4--4||-4--44||-2-220-0000--00-000------|
D]--4--4||-4--44||-2-220-0000--00-000------|
A]--2--2||-2--22||-0-002--2-2--22-222------|
E]------||------||----------3---3-33-------|
    drive off   in my car

E]--2--2||-2--22||-2-220-0332--33320-------|
B]--3--3||-3--33||-2-223-3333--33333-------|
G]--4--4||-4--44||-2-222-2222--22222-------|
D]--4--4||-4--44||-2-220-0000--00000-------|
A]--2--2||-2--22||-0-00--------------------|
E]------||------||-------------------------|
          but whichever way I choose, I come

E]--2--2||-2--22||-2-22--3333--33-3333-----|
B]--3--3||-3--33||-2-223-3333--33-3333-----|
G]--4--4||-4--44||-2-220-0000--00-0000-----|
D]--4--4||-4--44||-2-220-0000--00-0000-----|
A]--2--2||-2--22||-0-002--2-2--22-2222-----|
E]------||------||----------3---3-3--------|
   back to the place you are

(bridge)
E]-(2)(2)2-||2------------------2------3333----------3-03-----|
B]--2--2(2)||2------------------2---0--3333----------3-33-----|
G]--2--2||-||2------------------2---0--0000----------0-00-----|
D]--2--2||-||2------------------2---0--0000----------0-00-----|
A]--0--0||-||0------------------0---2---2-2----------2-22-----|
E]------||-||-----------------------3-----3-------------------|
               and all my instincts         they return

E]-(2)(2)2-||2------------------2------3333----------3-03-----|
B]--2--2(2)||2------------------2---0--3333----------3-33-----|
G]--2--2||-||2------------------2---0--0000----------0-00-----|
D]--2--2||-||2------------------2---0--0000----------0-00-----|
A]--0--0||-||0------------------0---2---2-2----------2-22-----|
E]------||-||-----------------------3-----3-------------------|
               and the grand facade      so soon will burn

E]-(2)(2)2-||2-----------22-----2-22---3333----3--3--3-03-----|
B]--2--2(2)||2-----------22-----2-220--3333----3--3--3-33-----|
G]--2--2||-||2-----------22-----2-220--0000----0--0--0-00-----|
D]--2--2||-||2-----------22-----2-220--0000----0--0--0-00-----|
A]--0--0||-||0-----------00-----0-002---2-2----2--2--2-22-----|
E]------||-||-----------------------3-----3-------------------|
               without  a   noise          without my pride

E]-(2)(2)2-||2------------------2-22---3333-----333-----------|
B]--2--2(2)||2------------------2-220--3333-----333-----------|
G]--2--2||-||2------------------2-220--0000----00000----------|
D]--2--2||-||2------------------2-220--0000----00000----------|
A]--0--0||-||0------------------0-002---2-2----22--2----------|
E]------||-||-----------------------3-----3----3---3----------|
  	       I reach out from the inside        oohhh...


The intro to the chorus is just a repeated G.

(chorus)
E]--0--(0)0||-0-------------------0-(00)0--00332----------2-22----|
B]--0--(0)0||-0-------------------0-(00)3--33333----------3-33----|
G]--1--(1)2||-1-------------------1-(11)2--22222----------2-22----|
D]--2--(2)2||-2-------------------2-(22)0--00000----------0-00----|
A]--2--(2)2||-2-------------------2-(22)--------------------------|
E]--0--(0)0||-0-------------------0-(00)--------------------------|
    eyes       the light, the heat           I am complete...

...this is generally the same for the rest of the chorus.
There are places where the E and G are strummed a few times more.

The second verse is pretty much the same form as the first, with
minor variations, and the obvious pauses.

I will eventually sumbit a revised edition of this song that
would smooth out some of the unclear parts.  In any case, don't
kill yourself trying to learn it exactly; I'm sure Jeffrey
Gaines couldn't play it again precisely the same way.





Comments


Popular Gaines Jeffrey tabs & chords
Headmasters Of Mine Chords
I Know A Man Chords
Love Disappears Chords
You Believe In Me Chords
Headmasters Of Mine Tabs
Hero In Me Tabs
Hero In Me 1 Tabs
In Your Eyes 1 Tabs
Love Disappears Tabs


Song lyrics



↑ Back to top | Tablatures and chords are parodies/interpretations of the original songs. You may use it for private study, scholarship, research or language learning purposes only
© 2014 AZChords.com Contact us | Privacy policy | DMCA | Add/correct tabs | Request tabs | Top 50 tabs