» » »

Gagong Rapper, Kabet Tabs (ver.6)

Artists:  A B C D E F G H I J K L M N O P Q R S T U V W X Y Z # 

Kabet Tabs (ver.6)

Gagong Rapper Tabs
 Rating:
4/5 (4 votes)
Kabet lessons Tabs too difficult? Try these video lessons and learn fast
                (Intro)
E|-------5-3-2-0-------5-3-2-----5---3-2-0-----5---2-0---2-0---------|
B|-3-3-5---------3-----------3-5-----------3-5---------3------0-2----|
G|-------------------------------------------------------------------|
D|-------------------------------------------------------------------|
A|-------------------------------------------------------------------|
E|-------------------------------------------------------------------|

E|-----------2-0------------2-0--------------2-3-5-------------------|
B|-3-2-3---3-----3-2-3--2-3-----3-2-3--------------------------------|
G|-------2------------2--------------------2-------------------------|
D|-------------------------------------------------------------------|
A|-------------------------------------------------------------------|
E|-------------------------------------------------------------------|


submit by:kenneth
            
Submit corrections

comments powered by Disqus
↑ Back to top | Gagong Rapper Tabs for Kabet. Lyrics for acoustic guitar and electric guitar. Tablatures and chords are parodies/interpretations of the original songs. You may use it for private study, scholarship, research or language learning purposes only