>
 >
Kabet 2

Kabet 2 Guitar Tabs

Gagong Rapper - Kabet 2 chords, tabs, tablatures, lyrics

Guitar lessons | Add/correct | Request | Top 50 tabs Artists:  A B C D E F G H I J K L M N O P Q R S T U V W X Y Z 0-9

Kabet 2 Guitar Tabs – Gagong Rapper

CD, Sheet music, Poster

Do you like Kabet 2? Share with your friends now
ChordsChords v2TabsTabs v2Tabs v3Tabs v4Tabs v5Ukulele
Kabet by Gagong Rapper,

January 23, 2006
This is my first tab, please rate this, but I'm 98% sure of it. I dedicated this tab to 
ex (Donna)...

Pkinggan nung mabuti mga tol ang song pra msbyn nu...tnx...mdli lng yn.

Intro:
---------------------------------------------------------------------------|
---8-6-5-3-1--8-6-5---5-8------5-8-------5--------------------5------------|
-5------------------7-----7-5-7----7-5-7---5--------5-4-5-4-5---7-5--4-5---|
---------------------------------------------5-5-7-------------------------|
---------------------------------------------------------------------------|
---------------------------------------------------------------------------|

--------------------------------------------------------------------|
---------------5-6-7/8----------------------------------------------|
-5-7-9-7-5-4-5------------------------------------------------------|
--------------------------------------------------------------------|
--------------------------------------------------------------------|
--------------------------------------------------------------------|

Verse I


--------------------------------------------------------------------------------|
---10-8---10-8---10---10-8----10-9-8-7---10-8--------------------8---8-7--------|
-7------7------7----7------7-----------7------7-*-9-11-9-7-6-7-7---7-----9-7----|
--------------------------------------------------------------------------------|
--------------------------------------------------------------------------------|
--------------------------------------------------------------------------------|

Kay sakit naman isipin na
sa puso mo ako’y pangalawa
sa tuwing makikita kitang kasama siya
pinipikit ko aking mga mata
at sa gabing kasama mo siya halos hindi ako makahinga
kayakap ko ang bote ng tequila
nagmumukmok sa ibabaw ng lamesa
naghihintay haggang sumapit ang umaga ng muli kang makasama.

--------------------|
-10-8-7-------------|(gawen nu poh 2 tpos ska nu gawen ung k2ld ng
--------9-7---------| sa 1st stanza ng verse 1)
--------------------|
--------------------|
--------------------|

---------------------------------------------------------------------------|
---10-8---10-8---10----10-9-8-7---10-8----------------------8---8-7--------|
-7------7------7----7-----------7------7--*--9-11-9-7-6-7-7---7-----9-7----|
---------------------------------------------------------------------------|
----------------------------------------------=----------------------------|
---------------------------------------------------------------------------|


Ano ang ating lagay
hindi mapalagay ako’y nasasaktan pag hawak mo kanyang kamay
sa kanya ka sa tanghali
akin ka sa gabi
pagilas sa umaga wala kana sa tabi
meron kahati gusto kita na mapasaakin
kung pwede lang ba sana sa kanya kita nakawin
at lagi mong iisipin kung hindi ka para sa akin
magmula pang salimutin na ikaw mahal ko rin.


-chorus-

D F#m Bm F#m Bm F#m
A D

Sa puso koy nag-iisa
kahit merong iba kahit hindi tama
ang ginagawa sinta
basta bay makasama lang kita
kahit kapiling mo pa siya.

At wag ng mangamba kahit sabihin na
kalimutan ka di ko to makakaya
basta bay makasama lang kita kahit kapiling mo pa siya

-------------|
-------------|
--5-6-7/8----|  (Bgo poh mg verse 2 nu yn g2wen
-------------|   o pgktpos poh ng chorus)
-------------|
-------------|


verse II.

(gnun din poh sa verse 1.. ulitin nyo nlng poh...)

--------------------------------------------------------------------------|
---10-8---10-8---10---10-9-8-7---10-8--------------------8---8-7----------|
-7------7------7----7----------7------7-*-9-11-9-7-6-7-7---7-----9-7------|...2x all
--------------------------------------------------------------------------|
--------------------------------------------------------------------------|
--------------------------------------------------------------------------|

I`t really hurts ang magmahal ng ganito
kung sino pang pinili ko hindi makuha ng buo
haggang ganun na lang nga
kailangan ko itong taggapin
sa puso mo meron na ngang iba umaangkin
at alam ko na rin na mayroon nagmamayari
sa pag ibig sa iyo ako itong nakikihati
at ano man ang mangyari hindi ko kayang manumbat
at kahit pailihin mo ako sa lahat
gaano man kabigat sa puso ko itong aminin
hindi dadaing wag ka lang mawawalay sa akin
masakit man na isipin na ako ang naghihiram
kaya pinasya mo na huwag na ngang ipaalam
at kahit hindi ito tama ako ay sumugal
kahit pa nga alam kong mayiba kang mahal
binigay ko ang lahat kahit ito ang natamo
sa pag-ibig nang iba ako ngayon nakikisalo


-chorus-

D F#m Bm F#m Bm F#m
A D

Sa puso koy nag-iisa
kahit merong iba kahit hindi tama
ang ginagawa sinta
basta bay makasama lang kita
kahit kapiling mo pa siya.


At wag ng mangamba kahit sabihin na
kalimutan ka di ko to makakaya
basta bay makasama lang kita kahit kapiling mo pa siya

-------------|
-------------|
--5-6-7/8----|  (Bgo poh mg verse 2 nu yn g2wen
-------------|   o pgktpos poh ng chorus)
-------------|
-------------|

Verse III
(Ganun din poh sa Verse II...ulitin nu nlng poh ul8...he3 :)

---------------------------------------------------------------------------|
---10-8---10-8---10----10-9-8-7---10-8----------------------8---8-7--------|
-7------7------7----7-----------7------7--*--9-11-9-7-6-7-7---7-----9-7----|
---------------------------------------------------------------------------|
----------------------------------------------=----------------------------|
---------------------------------------------------------------------------|

Sa situwasyon natin ito hindi ko alam san tutungo
alam ko pag mahirap pag mali pero mahirap rin isuko
paano ko masusuot sing sing sayo na dala,
kung sa paglalagyan nito meron na pa lang na una
ng makilala mo ako di ko binalak mang-gulo
gusto ko lang mapatunayan na ika’y mahal ko,
yung binuo yung buhay ko sa mga na-una na saglit
kahit ang tawag nga sa akin dihamak na kabit.

--------------------------|
---10-8-7-5-3-------------|  (gawen nu lang 2 tpos gawen nu ul8 ung
-7------------------------|    ginwa nu sa 1st stanza ng Verse III)
--------------------------|
--------------------------|
--------------------------|

Oo nga ikaw sa akin at ako ay sa iyo,
at ikaw din sa kanya at siya din sa iyo,
yun ay aking tinanggap para makasama ka lang
pero sa ng wag sabihin pa na kasama ka lang
para sa narin wag na tayong dumating diyan
tiisin ko ang lahat ke sana wag lang yan
at kahit alam kong mahirap tanggapin
na mas na una siya sa iyo kesa sa akin


-chorus-

D F#m Bm F#m Bm F#m
A D

Sa puso koy nag-iisa
kahit merong iba kahit hindi tama
ang ginagawa sinta
basta bay makasama lang kita
kahit kapiling mo pa siya.

At wag ng mangamba kahit sabihin na
kalimutan ka di ko to makakaya
basta bay makasama lang kita kahit kapiling mo pa siya ...

*the intro is actually the guitar accompaniment to the song's
chorus, so pwede niyong itugtog kasabay nung chorus, astig!

Note:
| /  slide up
| \  slide down
| h  hammer-on
| p  pull-off
| ~  vibrato
| +  harmonic
| x  Mute note
| b  Bend String (kau na poh bhala...:)
| *  Pause


finish n poh...first tym q plng poh n mgsubmit ng tab eh..kya pkirate nlng poh huh...if 
suggestions/comments kau...:)
or friendster...
tnx!! Enjoy!!!


Pkiadd n rin poh me s inyong friendster...tnx poh...by the way my is Janssen 
16 & 4th year student poh sa Good shepherd Academy...muztah n nga pla s mga clsm8 & frends q 
poh plge kau huh...

Pag di n poh aq bz at cnipag...i g2wa ul8 me...sana cpgin aq...he3...:)





Comments


Popular Gagong Rapper tabs & chords
Ignition Tagalog Chords
Kabet Chords
Sanay Totoo Chords
Torete Chords
Kabet 1 Tabs
Kabet 3 Tabs
Kabet Intro Tabs
Kabet Intro 2 Tabs
Sana Tabs
Kabet Ukulele


Song lyrics



↑ Back to top | Tablatures and chords are parodies/interpretations of the original songs. You may use it for private study, scholarship, research or language learning purposes only
© 2014 AZChords.com Contact us | Privacy policy | DMCA | Add/correct tabs | Request tabs | Top 50 tabs