» » »

Gaelic Storm, Heart Of The Ocean Tabs (ver.3)

Artists:  A B C D E F G H I J K L M N O P Q R S T U V W X Y Z # 

Heart Of The Ocean Tabs (ver.3)

Gaelic Storm Tabs
 Rating:
4/5 (4 votes)
Heart Of The Ocean lessons Tabs too difficult? Try these video lessons and learn fast
                Gaelic Storm
Heart Of The Ocean

Capo 3rd fret


Intro
e|---------------------------------------------------------------------|
B|--------0--0------0--0------1--1------3--3---------------------------|
G|-------0--0-0----0--0-0----0--0-0----0--0-0--------------------------|X4
D|------2--2------2--2------2--2------4--4-----------------------------|
A|-------------------------3---------5---------------------------------|
E|-----0---------0-----------------------------------------------------|

e|---------------------------------------------------------------------|
B|--------0--0------0--0------0--0------0--0---------------------------|
G|-------0--0-0----0--0-0----0--0-0----0--0-0--------------------------|
D|------2--2------2--2------2--2------2--2-----------------------------|
A|---------------------------------------------------------------------|
E|-----0---------0---------0---------0---------------------------------|

Verse
e|---------------------2--2--------------------------------------------|
B|--------0--0--------3--3-3--------0--0---------0--0------------------|
G|-------0--0-0------2--2----------0--0-0-------0--0-0-----------------|
D|------2--2--------0-------------2--2---------2--2--------------------|
A|---------------------------------------------------------------------|
E|-----0-------------------------0------------0------------------------|
      Candlelight   dies  at the window           And the
e|------------------------2--2--------------------------------------------|
B|--------0--0-----------3--3-3--------0--0---------0--0------------------|
G|-------0--0-0---------2--2----------0--0-0-------0--0-0-----------------|
D|------2--2-----------0-------------2--2---------2--2--------------------|
A|------------------------------------------------------------------------|
E|-----0----------------------------0------------0------------------------|
     Night wind blows soft from the sea              Though I
e|------------------------2--2--------------------------------------------|
B|--------0--0-----------3--3-3--------2--2--------------0--0-------------|
G|-------0--0-0---------2--2----------2--2-2------------0--0-0------------|
D|------0--0-----------0-------------2--2--------------2--2---------------|
A|----------------------------------0-------------------------------------|
E|-----3----------------------------------------------0-------------------|
      Lie  in your     arms I'm a   thousand miles   away  on the
e|-----------------------2--2---------------------------------------------|
B|--------0--0----------3--3-3---------0--0-----------0--0----------------|
G|-------0--0-0--------2--2-----------0--0-0---------0--0-0---------------|
D|------0--0----------0--------------2--2-----------2--2------------------|
A|------------------------------------------------------------------------|
E|-----3----------------------------0--------------0----------------------|
       waves sailing  fast sailing  free
Chorus
e|-------------------------2--2-------------------------------------------|
B|-----------0--0---------3--3-3----------0--0-------0--0-----------------|
G|----------0--0-0-------2--2------------0--0-0-----0--0-0----------------|
D|---------2--2---------0---------------2--2-------2--2-------------------|
A|------------------------------------------------------------------------|
E|--------0----------------------------0----------0-----------------------|
  Now I'm bound for the heart of the   ocean
e|------------------2--2--------------------------------------------------|
B|-------0--0------3--3-3-----3--3--3--3--3-------------------------------|
G|------0--0-0----2--2---------4--4--4--4--4------------------------------|
D|-----2--2------0--------------4--4--4--4--------------------------------|
A|---------------------------2--------------------------------------------|
E|----0-------------------------------------------------------------------|
  I'm riding the sea in my   soul
e|------------------------------------------------------------------------|
B|--------0--0----------0--0------------2--2---------0--0-----------------|
G|-------0--0-0--------0--0-0----------2--2-2-------0--0-0----------------|
D|------2--2----------0--0------------2--2---------2--2-------------------|
A|-----------------------------------0------------------------------------|
E|-----0-------------3----------------------------0-----------------------|
In the dark and the  deep she will   rock me to   sleep
e|------------------------------3-2---------------------------------------|
B|-----0--0------3--------------3-3---------------------------------------|
G|----0--0-0--------------------0-2---------------------------------------|
D|---2--2-----------------------------------------------------------------|
A|---------------2--------------------------------------------------------|
E|--0---------------------------------------------------------------------|
                   Down below       where the black waters roll
e|---------------------------------------------------------------------|
B|--------0--0------0--0------1--1------3--3---------------------------|
G|-------0--0-0----0--0-0----0--0-0----0--0-0--------------------------|X4
D|------2--2------2--2------2--2------4--4-----------------------------|
A|-------------------------3---------5---------------------------------|
E|-----0---------0-----------------------------------------------------|
      (roll)
e|---------------------------------------------------------------------|
B|--------0--0------0--0------0--0------0--0---------------------------|
G|-------0--0-0----0--0-0----0--0-0----0--0-0--------------------------|
D|------2--2------2--2------2--2------2--2-----------------------------|
A|---------------------------------------------------------------------|
E|-----0---------0---------0---------0---------------------------------|
                                         When the
Verse
e|---------------------2--2-----------------------------------------------|
B|--------0--0--------3--3-3--------0--0---------0--0---------------------|
G|-------0--0-0------2--2----------0--0-0-------0--0-0--------------------|
D|------2--2--------0-------------2--2---------2--2-----------------------|
A|------------------------------------------------------------------------|
E|-----0-------------------------0------------0---------------------------|
      Seabirds cry  out in the   morning            And the
e|------------------------2--2--------------------------------------------|
B|--------0--0-----------3--3-3--------0--0---------0--0------------------|
G|-------0--0-0---------2--2----------0--0-0-------0--0-0-----------------|
D|------2--2-----------0-------------2--2---------2--2--------------------|
A|------------------------------------------------------------------------|
E|-----0----------------------------0------------0------------------------|
       Sun lays its    kiss on the  sand             I'll be
e|------------------------2--2--------------------------------------------|
B|--------0--0-----------3--3-3--------2--2--------------0--0-------------|
G|-------0--0-0---------2--2----------2--2-2------------0--0-0------------|
D|------0--0-----------0-------------2--2--------------2--2---------------|
A|----------------------------------0-------------------------------------|
E|-----3----------------------------------------------0-------------------|
       Drawn to the   shore like so many times      before As I
e|-----------------------2--2---------------------------------------------|
B|--------0--0----------3--3-3---------0--0-----------0--0----------------|
G|-------0--0-0--------2--2-----------0--0-0---------0--0-0---------------|
D|------0--0----------0--------------2--2-----------2--2------------------|
A|------------------------------------------------------------------------|
E|-----3----------------------------0--------------0----------------------|
       Long to be     far from the  land
Chorus
e|-------------------------2--2-------------------------------------------|
B|-----------0--0---------3--3-3----------0--0-------0--0-----------------|
G|----------0--0-0-------2--2------------0--0-0-----0--0-0----------------|
D|---------2--2---------0---------------2--2-------2--2-------------------|
A|------------------------------------------------------------------------|
E|--------0----------------------------0----------0-----------------------|
  Now I'm bound for the heart of the   ocean
e|------------------2--2--------------------------------------------------|
B|-------0--0------3--3-3-----3--3--3--3--3-------------------------------|
G|------0--0-0----2--2---------4--4--4--4--4------------------------------|
D|-----2--2------0--------------4--4--4--4--------------------------------|
A|---------------------------2--------------------------------------------|
E|----0-------------------------------------------------------------------|
  I'm riding the sea in my   soul
e|------------------------------------------------------------------------|
B|--------0--0----------0--0------------2--2---------0--0-----------------|
G|-------0--0-0--------0--0-0----------2--2-2-------0--0-0----------------|
D|------2--2----------0--0------------2--2---------2--2-------------------|
A|-----------------------------------0------------------------------------|
E|-----0-------------3----------------------------0-----------------------|
In the dark and the  deep she will   rock me to   sleep
e|------------------------------3-2---------------------------------------|
B|-----0--0------3--------------3-3---------------------------------------|
G|----0--0-0--------------------0-2---------------------------------------|
D|---2--2-----------------------------------------------------------------|
A|---------------2--------------------------------------------------------|
E|--0---------------------------------------------------------------------|
                   Down below       where the black waters roll

e|-----------------------------------------------------------------------|
B|--------0--0------0--0------1--1------3--3-----------------------------|
G|-------0--0-0----0--0-0----0--0-0----0--0-0----------------------------|X4
D|------2--2------2--2------2--2------4--4-------------------------------|
A|-------------------------3---------5-----------------------------------|
E|-----0---------0-------------------------------------------------------|

Solo
e|------------------------------------------------------------------------|
B|------------------------------------------------------------------------|
G|----4-2-0---0--------------4-2-0---0--------4-2-0-------0-2-------------|
D|----4-2-0-4-0-0-2----------4-2-0-4-0-0-2----4-2-0-----4-0-2-2-----------|
A|----------4---0-2----------------4---0-2--------------4-----2-----------|
E|------------------------------------------------------------------------|

e|---------------------------------------------------------------------|
B|--------0--0------0--0------0--0------0--0---------------------------|
G|-------0--0-0----0--0-0----0--0-0----0--0-0--------------------------|
D|------2--2------2--2------2--2------2--2-----------------------------|
A|---------------------------------------------------------------------|
E|-----0---------0---------0---------0---------------------------------|
                                         I can
Verse
e|-------------------------2--2-------------------------------------------|
B|--------0--0------------3--3-3--------0--0---------0--0-----------------|
G|-------0--0-0----------2--2----------0--0-0-------0--0-0----------------|
D|------2--2------------0-------------2--2---------2--2-------------------|
A|------------------------------------------------------------------------|
E|-----0-----------------------------0------------0-----------------------|
       Still hear your voice on the  trade winds      I can
e|-------------------------2--2-------------------------------------------|
B|--------0--0------------3--3-3--------0--0---------0--0-----------------|
G|-------0--0-0----------2--2----------0--0-0-------0--0-0----------------|
D|------2--2------------0-------------2--2---------2--2-------------------|
A|------------------------------------------------------------------------|
E|-----0-----------------------------0------------0-----------------------|
       Still taste your tears on the foam             But the
e|------------------------2--2--------------------------------------------|
B|--------0--0-----------3--3-3---------2--2--------------0--0------------|
G|-------0--0-0---------2--2-----------2--2-2------------0--0-0-----------|
D|------0--0-----------0--------------2--2--------------2--2--------------|
A|-----------------------------------0------------------------------------|
E|-----3-----------------------------------------------0------------------|
      Roar of the      tide that I'm feeling         inside  Will not
e|-----------------------2--2---------------------------------------------|
B|--------0--0----------3--3-3----------0--0-----------0--0---------------|
G|-------0--0-0--------2--2------------0--0-0---------0--0-0--------------|
D|------0--0----------0---------------2--2-----------2--2-----------------|
A|------------------------------------------------------------------------|
E|-----3-----------------------------0--------------0---------------------|
       Rest til my   heart finds its home
Chorus
e|-------------------------2--2-------------------------------------------|
B|-----------0--0---------3--3-3----------0--0-------0--0-----------------|
G|----------0--0-0-------2--2------------0--0-0-----0--0-0----------------|
D|---------2--2---------0---------------2--2-------2--2-------------------|
A|------------------------------------------------------------------------|
E|--------0----------------------------0----------0-----------------------|
   Now my heart is the  heart of the   ocean          There are
e|-----------------------2--2-------------------------------|
B|-------0--0-----------3--3-3-----3--3--3--3--3------------|
G|------0--0-0---------2--2---------4--4--4--4--4-----------|
D|-----2--2-----------0--------------4--4--4--4-------------|
A|--------------------------------2-------------------------|
E|----0-----------------------------------------------------|      Storms from the sea 
my   soul
e|----------------------------------------------------------|
B|--------0--0----------0--0------------2--2---------0--0---|
G|-------0--0-0--------0--0-0----------2--2-2-------0--0-0--|
D|------2--2----------0--0------------2--2---------2--2-----|
A|-----------------------------------0----------------------|
E|-----0-------------3----------------------------0---------|
  I'm  restless and  deep and      before I can   sleep
e|------------------------------------------------------------------------|
B|-----0--0---------------------------------------------------------------|
G|----0--0-0--------------------------------------------------------------|
D|---2--2-----------------------------------------------------------------|
A|------------------------------------------------------------------------|
E|--0---------------------------------------------------------------------|
                  I must go        where the black waters roll
Outro
e|-----------------------------------------------------------------------|
B|--------0--0------0--0------1--1------3--3-----------------------------|
G|-------0--0-0----0--0-0----0--0-0----0--0-0----------------------------|X2
D|------2--2------2--2------2--2------4--4-------------------------------|
A|-------------------------3---------5-----------------------------------|
E|-----0---------0-------------------------------------------------------|
      (roll)               Where the black waters roll

e|------------------------------------------------------------------------|
B|--------0--0------------------------------------------------------------|
G|-------0--0-0-----------------------------------------------------------|
D|------2--2--------------------------------------------------------------|
A|------------------------------------------------------------------------|
E|-----0-------0----------------------------------------------------------|

  Where the black waters roll
            
Submit corrections

comments powered by Disqus
↑ Back to top | Gaelic Storm Tabs for Heart Of The Ocean. Lyrics for acoustic guitar and electric guitar. Tablatures and chords are parodies/interpretations of the original songs. You may use it for private study, scholarship, research or language learning purposes only