>
 >
Vanilla

Vanilla Bass Tabs

Gackt - Vanilla chords, tabs, tablatures, lyrics

Guitar lessons | Add/correct | Request | Top 50 tabs Artists:  A B C D E F G H I J K L M N O P Q R S T U V W X Y Z 0-9

Vanilla Bass Tabs – Gackt

CD, Sheet music, Poster

Do you like Vanilla? Share with your friends now
Bass TabsTabs
-------------------------------------------------------------------------------
-------------------------------------------------------------------------------

Ok people,
here we have the Bass tab for Gackts most famous song; Vanilla.This riff is realyl cool,
a solid groove. I decided to post it seeing it doesnt already exist on teh internet.
is his best song..why its not on teh net is a mystery. o_O I spent 7 hrs straight 
this...so please enjoy it. :)
If u wanna c the actually tabbed handwriten notation floow this link:




             !!!Timing in this song is very important for this song!!!
Enjoy :)

| /  slide up
| \  slide down
| h  hammer-on
| p  pull-off
| ~  vibrato
| +  harmonic
| x  Mute note
| >  let ring or hold the note for a little longer


Intro:

  Cm9                    F7sus4   G

G-------5----------345---------------------------------|
D-----5----------5-------------3----------123----------|
A--3-------3--3--------------3----------3--------------|
E-------------------------1--------3-3-----------------|

Verse 1:

G------5---------345-----------------------------------|
D----5---------5-----------3---------------------------|
A-3-------3-3------------3-----------------------------|
E---------------------1-------3-3--03-03-03------------|

G-------5---------345----------------------------------|
D-----5---------5-------------3---------3--1-----------|
A--3-------3-3--------------3-----------------3--2>>---|
E------------------------1--------3-3------------------|

Verse 2:


  Cm9                    F7sus4   G

G-------5---------345----------------------------------|
D-----5--------5-------------3-----------123-----------|
A--3-------3-3-------------3-----------3---------------|
E-----------------------1---------3--3-----------------|

G------5---------345-----------------------------------|
D----5---------5-------------3---55------77------------|
A-3--------3-3-------------3--------66------88---------|
E-----------------------1------------------------------|

Pre Chorus:


  Cm9                  F7sus4

G------5---------345-----------------------------------|
D----5---------5------------3--------1-2-3-------------|
A-3--------3-3------------3--------3-------------------|
E-----------------------1------11----------------------|

G-------5----------345---------------------------------|
D-----5---------5--------------------------------------|
A--3-------3-3------------------3-2---11--22--33--44---|
E------------------------1----1------------------------|

G------------------------------------------------------|
D------------------------------------------------------|
A------------------------------------------------------|
E--33--33--3-3-3>>-------------------------------------|

Chorus:

  Cm9                     F7sus4   G

G-------5----------345---------------------------------|
D-----5----------5-------------3----------123----------|
A--3-------3--3--------------3----------3--------------|
E-------------------------1--------3-3-----------------|

G-------5----------345---------------------------------|
D-----5----------5-------------3---------3-1-----------|
A--3-------3--3--------------3-----------------3--2>---|
E-------------------------1--------3-3-----------------|

G-------5----------345---------------------------------|
D-----5----------5-------------3-------11--22--33------|
A--3-------3--3--------------3-------------------------|
E-------------------------1--------33------------------|

G-------5----------345---------------------------------|
D-----5----------5-------------3----------123----------|
A--3-------3--3--------------3----------3--------------|
E-------------------------1--------3-3-----------------|

Break (this part is the same as the intro, however the
ast bar is differnt and at the very end it has a slide):

  Cm9                     F7sus4   G

G-------5----------345---------------------------------|
D-----5----------5-------------3----------123----------|
A--3-------3--3--------------3----------3--------------|
E-------------------------1--------3-3-----------------|

G-------5----------345---------------------------------|
D-----5----------5-------------3-------11--22--33------|
A--3-------3--3--------------3-------------------------|
E-------------------------1--------33------------------|

G------------------------------------------------------|
D------------------------------------------------------|
A-12\3-------------------------------------------------|
E------------------------------------------------------|

Verse 3:

--------5----------------------------------------------|
------5---5----------3-------------1-3-----------------|
--3----------------3---3---------3---------------------|
----------------1------------3-------------------------|

-------5---------------345-----------------------------|
-----5---5----------5---------------3------55----77----|
-3-------------3-3----------------3---3------66----88--|
------------------------------1------------------------|

Middle 8 (just before guitar solo):

------------------------------------------------------|
------------------------------------------------------|
--3>>---2/3>>-----2/3>>------------1>-----------------|
---------------------------1>>--3>--------------------|

Guitar Solo:

-----3-5------3-5--------------------------------------|
------------------------1-3-------1--3-----------------|
--3--------3-------------------------------------------|
---------------------1---------3-----------------------|  x3

------------------------------------------------------|
----------------------------------------3-1-----------|
-------------------------------------3------3--2------|
--1>>--3>>--4>>------1>>---4>>---1>>------------------|

Finish:

-------5----------345---------------------------------|
-----5----------5-------------3----------123----------|
--3-------3--3--------------3----------3--------------|
-------------------------1--------3-3-----------------|

-------5----------345---------------------------------|
-----5----------5-------------3-----------------------|
--3-------3--3--------------3-------------33---5------|
-------------------------1--------3-3-3---------------|


Structure:

Intro x2
Verse 1
Intro x1
Verse 2
Pre Chorus
Chorus
Break
Verse 3
Pre Chorus
Chorus
Middle 8
Solo
Pre Chorus
Chorus x2
Finish

This is an easy song. Its basically the same riff throughout the whole song, except for
verse it is tweaked and changed jsut a little bit. :)





Comments


Popular Gackt tabs & chords
Illness Illusion Bass Tabs
12gatsu No Love Song Chords
Juunigatsu No Love Song Chords
Longing Intro Tabs
Lu Na Tabs
Redemption 1 Tabs
Tsuki No Uta 1 Tabs
Vanilla Tabs
12gatsu No Love Song Ukulele
Last Song Ukulele


Song lyrics



↑ Back to top | Tablatures and chords are parodies/interpretations of the original songs. You may use it for private study, scholarship, research or language learning purposes only
© 2014 AZChords.com Contact us | Privacy policy | DMCA | Add/correct tabs | Request tabs | Top 50 tabs