» » »

Gackt, Mizerable Tabs (ver.1)

Artists:  A B C D E F G H I J K L M N O P Q R S T U V W X Y Z # 

Mizerable Tabs (ver.1)

Gackt Tabs
 Rating:
4.2/5 (5 votes)
Mizerable lessons Tabs too difficult? Try these video lessons and learn fast
1
                (Intro)
Artista : Gackt
Cancion : Mizerable

Esta es una d las canciones d Gackt q ma me afanan!, y no me tomo mucho tiempo sacar el 
con mi guitarra acustica (algo d media hora). asi q bien, segun yo esto es asi:

e-----16-14---16-14-------------------------------|
B--------------------16~-17--16~-17---17-16-14----|
G--14------16----------------------------------16-|
D-------------------------------------------------|
A-------------------------------------------------|
E-------------------------------------------------|

e-----16-14---16-14-------------19~-|
B--------------------15~-17--15~----|
G--14------16-----------------------|
D-----------------------------------|
A-----------------------------------|
E-----------------------------------|

e-----16-14---16-14-------------------------------|
B--------------------16~-17--16~-17---17-16-14----|
G--14------16----------------------------------16-|
D-------------------------------------------------|
A-------------------------------------------------|
E-------------------------------------------------|

e-----16---20~~------|
B--17----17----------|
G--------------------|
D--------------------|
A--------------------|
E--------------------|
            
Submit corrections

comments powered by Disqus
↑ Back to top | Gackt Tabs for Mizerable. Lyrics for acoustic guitar and electric guitar. 1 Tablatures and chords are parodies/interpretations of the original songs. You may use it for private study, scholarship, research or language learning purposes only