» » »

Gackt, Illness Illusion Bass tabs (ver.1)

Artists:  A B C D E F G H I J K L M N O P Q R S T U V W X Y Z # 

Illness Illusion Bass tabs (ver.1)

Gackt Tabs
Rating:
0/5 (0 votes)
Illness Illusion lessons Tabs too difficult? Try these video lessons and learn fast
                Gackt - Illness Illusion
Mars
Ju-ken

the bass is pretty hard to hear, i think

/ = slide  h=hammer on  p=pull off

(0.16)
G|--------------------------------------10/-|
D|-/9---12/--/9---12/--/9---12/--/9---12----|
A|----99--------99--------99--------99------|
E|------------------------------------------|


G|------------|--------------|------------|------------|
D|9----------8|9----------811|9----------8|9-----------|
A|---9--7--9--|---9--7--9----|---9--7--9--|---9--7--9-9|
E|------------|--------------|------------|------------|


G|------------|------------|9-----------|------9--\9-|
D|---7--9--9--|---7--9--9--|--97-79--9--|---7---96---|
A|7-------9---|7-------9---|------------|7-----------|
E|------------|------------|------------|------------|


G|------------|--------6h7p6--|---------------|------------|
D|--------54--|-------------7-|---------------|------------|
A|3--5--7---75|3--5--0-------7|3--5--7----3/5/|3--5--------|
E|-------0----|---------------|---------3-----|------------|


G|------------|------------------|--------------|-------------|
D|9----------8|989898---------811|9----------811|9------------|
A|---9--7--9--|------9--7--9-----|---9--7--9----|---9--7-7/9--|
E|------------|------------------|--------------|-------------|


G|--11----------|--11----------|
D|9--------12---|9--------12---|
A|------10----10|------10----10|
E|--------------|--------------|

G|11------------|11------------|11------------|11-9----------|
D|---9-11--12---|---9-11--12---|---9-11--12---|-----12-11-9-7|
A|------------10|------------10|------------10|--------------|
E|--------------|--------------|--------------|--------------|


G|------------|--------6h7p6--|---------------|------------|
D|--------54--|-------------7-|------9--------|------------|
A|3--5--7---75|3--5--0-------7|3--5--7----3/5/|3--5--------|
E|-------0----|---------------|---------33----|------------|

G|--------21--|--------8h9p8--|--------------|------------|
D|0--2--4---42|-------------9-|--------------|------------|
A|------------|5--7----------9|5--7--9-------|5--7--------|
E|-------2----|------7--------|---------2/4--|------------|


G|--13--|------|------|--1113|14--13--|11--141311|9--13|11----|
D|11----|--14--|--1316|14----|--14--14|----------|-11--|--1110|
A|----11|12--12|14----|------|--------|----------|-----|------|
E|------|------|------|------|--------|----------|-----|------|

G|--11-|------|------|----11|12--11--|9--12119|7---11|7---11|
D|9----|--12--|--1114|1214--|--12--12|--------|--9---|--8---|
A|----9|10--10|12----|------|--------|--------|------|------|
E|-----|------|------|------|--------|--------|------|------|

G|----------|
D|/12-------|
A|----12----|
E|-------10-|
            

comments powered by Disqus
↑ Back to top | Gackt Bass for Illness Illusion. Lyrics for acoustic guitar and electric guitar. Tablatures and chords are parodies/interpretations of the original songs. You may use it for private study, scholarship, research or language learning purposes only