>
 >
Flower

Flower Guitar Tabs

Gackt - Flower chords, tabs, tablatures, lyrics

Guitar lessons | Add/correct | Request | Top 50 tabs Artists:  A B C D E F G H I J K L M N O P Q R S T U V W X Y Z 0-9

Flower Guitar Tabs – Gackt

CD, Sheet music, Poster

Do you like Flower? Share with your friends now
Tabs
-------------------------------------------------------------------------------
-------------------------------------------------------------------------------

Tuning: EADGBE


Intro:


Chords                  Riff
e|---------------------------------------------------------------------------|
B|---------------------------------------------------------------------------|
G|------------------------4-5---------4-5-7-5-4------------------------------|
D|-7--3--10--5----------5-----5--(x3)-----------5----------------------------| (x2)
A|-7--3--10--5---------------------------------------------------------------|
E|-5--1--8---3---------------------------------------------------------------|


Verse 1:


Chords                 
e|---------------------------------------------------------------------------|
B|---------------------------------------------------------------------------|
G|---------------------------------------------------------------------------|
D|-7---3---10---5----7---3---10---5------------------------------------------|
A|-7---3---10---5----7---3---10---5------------------------------------------|
E|-5---1---8----3----5---1---8----3-(x16)------------------------------------|

PM ... ... ... ...   ... ... ... 


Pre-Chorus:

Chords                  Riff
e|---------------------------------------------------------------------------|
B|---------------------------------------------------------------------------|
G|---------------------------------------------------------------------------|
D|-7--3--10--5------------------5--------------------------------------------| (x2)
A|-7--3--10--5------------2-3-5----------------------------------------------|
E|-5--1--8---3----------3----------------------------------------------------|


Chorus:


Chords                  Riff

e|----------------------8---8------8-10---10------10-12----12--|
B|------------------------8---8888------8----8888-------10-----|
G|-------------------------------------------------------------|
D|-10--5--7--3-------------------------------------------------|
A|-10--5--7--3-------------------------------------------------|
E|-8---3--5--1-------------------------------------------------|

e|----------------------------------12-13----13-------------13-|
B|----------------------10-10-10-10-------13----13-13-13-13----|
G|-------------------------------------------------------------|
D|-------------------------------------------------------------| (x2)
A|-------------------------------------------------------------|
E|-------------------------------------------------------------|


Post-Chorus:


e|--------------|
B|--------------|
G|--------------|
D|--------------| (Repeat Intro)
A|-PICKSLIDE----|
E|--------------|


Verse 2:


Chords                   Riff
e|---------------------------------------------------------------------------|
B|---------------------------------------------------------------------------|
G|---------------------------------------------------------------------------|
D|--7--3--10--5----------9-10-12-9---9-10-12-14---9-10-12-9------------------|
A|--7--3--10--5---------------------------------------------10---------------|
E|--5--1--8---3--------------------------------------------------------------|

e|---------------------------------------------------------------------------|
B|---------------------------------------------------------------------------|
G|---------------------------------------------------------------------------|
D|--7--3--10--5--------------------------------------------------------------|
A|--7--3--10--5--------------------------------------------------------------|
E|--5--1--8---3--------------------------------------------------------------|


Pre-Chorus:


Chords                  Riff
e|---------------------------------------------------------------------------|
B|---------------------------------------------------------------------------|
G|---------------------------------------------------------------------------|
D|-7--3--10--5------------------5--------------------------------------------| (x2)
A|-7--3--10--5------------2-3-5----------------------------------------------|
E|-5--1--8---3----------3----------------------------------------------------|


Chorus:


Chords                  Riff

e|----------------------8---8------8-10---10------10-12----12--|
B|------------------------8---8888------8----8888-------10-----|
G|-------------------------------------------------------------|
D|-10--5--7--3-------------------------------------------------|
A|-10--5--7--3-------------------------------------------------|
E|-8---3--5--1-------------------------------------------------|

e|----------------------------------12-13----13-------------13-|
B|----------------------10-10-10-10-------13----13-13-13-13----|
G|-------------------------------------------------------------|
D|-------------------------------------------------------------| (x2)
A|-------------------------------------------------------------|
E|-------------------------------------------------------------|


Solo:


e|--/15-12-13-13/15---/15-12-12/13-12-10--(x3)--/15-12-13-13/15--/15-12-/20-19-20p19-15--|
B|---------------------------------------------------------------------------------------|
G|---------------------------------------------------------------------------------------|
D|---------------------------------------------------------------------------------------|
A|---------------------------------------------------------------------------------------|
E|---------------------------------------------------------------------------------------|

e|--/15-13p12-12h13p12---------------/15----19----21b-19-21b-----------------|
B|---------------------13-13/15-12-------15----20----------------------------|
G|---------------------------------------------------------------------------|
D|---------------------------------------------------------------------------|
A|---------------------------------------------------------------------------|
E|---------------------------------------------------------------------------|


(After brief interlude):


e|---------------------------------------------------------------------------|
B|---------------------------------------------------------------------------|
G|---------------------------------------------------------------------------|
D|--3--5--7-5--7--2--3--5----------------------------------------------------|
A|--3--5--7-5--7--2--3--5----------------------------------------------------|
E|--1--3--5-3--5--0--1--3----------------------------------------------------|
               PM........


Repeat Chorus to end


End on:


e|--------------|
B|--------------|
G|--------------|
D|--3-----------|
A|--3-----------|
E|--1-----------|


************************************

| /   slide up
| \   slide down
| h   hammer-on
| p   pull-off
| ~   vibrato
| +   harmonic
| x   Mute note
| b   Bend
| pb  Pre-bend
| br  Bend release
| pbr Pre-bend release
| brb Bend release bend

************************************





Comments


Popular Gackt tabs & chords
12gatsu No Love Song Chords
Last Song Chords
Black Stone Tabs
Last Song Intro Tabs
Lu Na Tabs
Redemption 1 Tabs
Vanilla Tabs
Juunigatsu No Love Song Ukulele
Last Song Ukulele
Lust For Blood Ukulele


Song lyrics



↑ Back to top | Tablatures and chords are parodies/interpretations of the original songs. You may use it for private study, scholarship, research or language learning purposes only
© 2014 AZChords.com Contact us | Privacy policy | DMCA | Add/correct tabs | Request tabs | Top 50 tabs