» » »

Gackt, Black Stone Tabs (ver.1)

Artists:  A B C D E F G H I J K L M N O P Q R S T U V W X Y Z # 

Black Stone Tabs (ver.1)

Gackt Tabs
 Rating:
4/5 (4 votes)
Black Stone lessons Tabs too difficult? Try these video lessons and learn fast
1
                Tuning: Standard

m – palm mute
/ - slide up
\ - slide down
~ - vibrato

Intro. (Play 2x)

Lead Gtr

E-------------------------------------------------------------|
B---3--3--2--2--3--3--2--2--3--2--3--3--2--2--3--3--/7--5--2--|
G-------------------------------------------------------------|
D-------------------------------------------------------------|
A-------------------------------------------------------------|
E-------------------------------------------------------------|

Rhy Gtr

E-------------------------------------------------------------|
B-------------------------------------------------------------|
G---7--7--7--7--7--7--7--7--7--7--2--2--2--2--2--2--2--2--2---|
D---7--7--7--7--7--7--7--7--7--7--2--2--2--2--2--2--2--2--2---|
A---5--5--5--5--5--5--5--5--5--5--0--0--0--0--0--0--0--0--0---|
E-------------------------------------------------------------|

Lead Gtr

-------------------------------------------------------------|
---3--3--2--2--3--3--2--2--3--2--3--3--2--2--3--3--5--3--2---|
-------------------------------------------------------------|
-------------------------------------------------------------|
-------------------------------------------------------------|
-------------------------------------------------------------|

Rhy Gtr

-------------------------------------------------------------|
-------------------------------------------------------------|
---4--4--4--4--4--4--4--4--4--4------------------------------|
---4--4--4--4--4--4--4--4--4--4--5--5--5--5--5--5--5--5--5---|
---2--2--2--2--2--2--2--2--2--2--5--5--5--5--5--5--5--5--5---|
---------------------------------3--3--3--3--3--3--3--3--3---|

Verse (Play 2x)

------------------------------------------------------------------|
------------------------------------------------------------------|
--7-------------------------------2-------------------------------|
--7-7--7--7--7--7--7--7--7--7--7--2-------------------------------|
--5—5m-5m-5m-5m-5m-5m-5m-5m-5m-5m-0-0m-0m-0m-0m-0m-0m-0m-0m-0m-0m-|
------------------------------------------------------------------|

-------------------------------------------------------------------|
-------------------------------------------------------------------|
-----------------------------------2-------------------------------|
---5-------------------------------2-------------------------------|
---5-5--5--5--5--5--5--5--5--5--5--0-0m-0m-0m-0m-0m-0m-0m-0m-0m-0m-|
---3-3m-3m-3m-3m-3m-3m-3m-3m-3m-3m---------------------------------|

Chorus (Play 2x)

-------------------------------------------------------------|
-------------------------------------------------------------|
---7--7--7--7--7--7--7--7--7--7--2--2--2--2--2--2--2--2--2---|
---7--7--7--7--7--7--7--7--7--7--2--2--2--2--2--2--2--2--2---|
---5--5--5--5--5--5--5--5--5--5--0--0--0--0--0--0--0--0--0---|
-------------------------------------------------------------|

-------------------------------------------------------------|
-------------------------------------------------------------|
---4--4--4--4--4--4--4--4--4--4------------------------------|
---4--4--4--4--4--4--4--4--4--4--5--5--5--5--5--5--5--5--5---|
---2--2--2--2--2--2--2--2--2--2--5--5--5--5--5--5--5--5--5---|
---------------------------------3--3--3--3--3--3--3--3--3---|

After the chorus play the same thing as the intro, except play it only once.

Then
(Verse 2)

(Chorus 2)

Interlude
(clean)
--------------------------------------------------------------|
-----------------7------------------7------------------7------|
----6------6--------6--6------6--------6--6------6------------|
-------5------5-----------5------5-----------5------5---------|
--------------------------------------------------------------|
--------------------------------------------------------------|

---------------------------------------------------------------|
---------------------------------------------------------------|
---------------------------------------------------------------|
---5--5-----------5--/7--7--7--7-------------------------------|
---5--5-----------5--/7--7--7--7-------------------------------|
---3--3--3m-3m-3m-3--/5--5--5--5-------------------------------|

Guitar Solo
(Here the Rhythm guitar plays the same thing as in the chorus with the lead as shown below.)

----------------/17~------------------------------------/17~--|
---/15--14--15-----------/15--14--15-------/15--14--15--------|
--------------------------------------14~---------------------|
--------------------------------------------------------------|
--------------------------------------------------------------|
--------------------------------------------------------------|

--------------------------------------------------------------|
---/15--14--15---/19--17--14----------------------------------|
--------------------------------------------------------------|
--------------------------------------------------------------|
--------------------------------------------------------------|
--------------------------------------------------------------|

----------------/17~------------------------------------/17~--|
---/15--14--15-----------/15--14--15-------/15--14--15--------|
--------------------------------------14~---------------------|
--------------------------------------------------------------|
--------------------------------------------------------------|
--------------------------------------------------------------|

----------------------------------|
---/15--14--15---/19--17--14—15~~-|
----------------------------------|
----------------------------------|
----------------------------------|
----------------------------------|

Interlude before final chorus

--------------------------------------------------------------|
--------------------------------------------------------------|
--7--7---------7---------7--2--2---------2--------2-----------|
--7--7---------7---------7--2--2---------2--------2-----------|
--5--5--5m-5m--5--5m-5m--5--0--0--0m-0m--0--0m-0m-0-----------|
--------------------------------------------------------------|

---------------------------------|
---------------------------------|
--4--4---------4---------4-------|
--4--4---------4---------4-------|
--2--2--2m-2m--2--2m-2m--2-------|
---------------------------------|

(Chorus 3)

Outro (same as intro)

That’s it.
            
Submit corrections

comments powered by Disqus
↑ Back to top | Gackt Tabs for Black Stone. Lyrics for acoustic guitar and electric guitar. 1 Tablatures and chords are parodies/interpretations of the original songs. You may use it for private study, scholarship, research or language learning purposes only