» » »

Sweet About Me Bass tabs (ver.1)

Artists:  A B C D E F G H I J K L M N O P Q R S T U V W X Y Z # 

Sweet About Me Bass tabs (ver.1)

Gabriella Cilmi
Rating:
4/5 (1 vote)

Hard to play? Try these video lessons and learn fast.
                Tuning: Standard

Most of the song is like this...:
  C#                 E               B               C#      
G|------------------|---9-9-----9---|---------------|------------------|
D|---11-11-----11---|---------------|---9-9-----9---|---11-11-----11---|
A|------------------|-7-----7-7---7-|---------------|------------------| x6
E|-9-------9-9----9-|---------------|-7-----7-7---7-|-9-------9-9----9-|

Here a little twist..:

  C#                 E               B               C#      
G|------------------|---9-9-----9---|---------------|---------|
D|---11-11-----11---|---------------|---9-9-----9---|---------|
A|------------------|-7-----7-7---7-|---------------|---------| x1
E|-9-------9-9----9-|---------------|-7-----7-7---7-|-9-9-9-0-|


Then back to...:

  C#                 E               B               C# 
G|------------------|---9-9-----9---|---------------|------------------|
D|---11-11-----11---|---------------|---9-9-----9---|---11-11-----11---|
A|------------------|-7-----7-7---7-|---------------|------------------| x4
E|-9-------9-9----9-|---------------|-7-----7-7---7-|-9-------9-9----9-|

Then a bridge/intermezzo...:
   C# E  B E
G|------------|
D|-11-14-9-11-|
A|------------|
E|------------|

Then back to...:

  C#                 E               B               C# 
G|------------------|---9-9-----9---|---------------|------------------|
D|---11-11-----11---|---------------|---9-9-----9---|---11-11-----11---|
A|------------------|-7-----7-7---7-|---------------|------------------| x6
E|-9-------9-9----9-|---------------|-7-----7-7---7-|-9-------9-9----9-|

Then a skip of the bass...:

  C#                 E               B               C#      
G|------------------|---9-9-----9---|---------------|---------|
D|---11-11-----11---|---------------|---9-9-----9---|---------|
A|------------------|-7-----7-7---7-|---------------|---------| x1
E|-9-------9-9----9-|---------------|-7-----7-7---7-|---------|

Then the last four times the standard...:

  C#                 E               B               C# 
G|------------------|---9-9-----9---|---------------|------------------|
D|---11-11-----11---|---------------|---9-9-----9---|---11-11-----11---|
A|------------------|-7-----7-7---7-|---------------|------------------| x4
E|-9-------9-9----9-|---------------|-7-----7-7---7-|-9-------9-9----9-|

Then a bassless fade out...

Hope you enjoy!!!
            
Hard to play? Try these video lessons and learn fast. | Correct




comments powered by Disqus
↑ Back to top | Tablatures and chords are parodies/interpretations of the original songs. You may use it for private study, scholarship, research or language learning purposes only