» » »

Breaking Free Bass tabs (ver.1)

Artists:  A B C D E F G H I J K L M N O P Q R S T U V W X Y Z # 

Breaking Free Bass tabs (ver.1)

Gabriella And Troy
Rating:
0/5 (0 votes)

Hard to play? Try these video lessons and learn fast.
                -------------------------------------------------------------------------------
			     Breaking free – Gabriella and troy
-------------------------------------------------------------------------------


Tuning: standard


You should use a CAPO on third fret but this is the tab for without the CAPO

Listen to song for the timing

Intro
G|-------------------------------------------------------------------------|
D|---------3---------------------------------------------------------------|
A|--3----------------------------------------------------------------------|
E|--------------4----------------------------------------------------------|

Verse
G|-------------------------------------------------------------------------|
D|--------3-------------------------------3---------------------3----------|
A|-3------------------6------------3---------------------3-----------------|
E|--------------4-----------6---------------------4------------------------|

G|-------------------------------------------------------------------------|
D|------------------------------3------------------------------------------|
A|--------6--------------3---------------------6---------------------------|
E|-4-------------6----------------------4-------------6--------------------|

G|-------------------------------------------------------------------------|
D|-------------------------------------------------------------------------|
A|--------3----------------------------------------------------------------|
E|-4--------------4--------------------------------------------------------|

chorus
G|-------------------------------------------------------------------------|
D|-------3----------------------------------3------------------------------|
A|-3------------------6-------------3--------------------------------------|
E|-------------4-------------6----------------------4----------------------|

verse
G|-------------------------------------------------------------------------|
D|--------3------------------------------------3---------------------------|
A|-3---------------------6-------------3-------------------------6---------|
E|----------------4-------------6----------------------4-----------------6-|

G|-------------------------------------------------------------------------|
D|--------3----------------------------------------------------------------|
A|-------------------------------------------------------------------------|
E|-4-------------4---------------------------------------------------------|

Chorus
G|-------------------------------------------------------------------------|
D|---------3-----------------------------------3---------------------------|
A|-3----------------------6-------------3----------------------------------
E|----------------4---------------6--------------------4-------------------|

G|-------------------------------------------------------------------------|
D|-------3-------------------------------------3---------------------------|
A|-3-------------------6---------------3---------------------6-------------|
E|--------------4---------------6---------------------4--------------6---4-|

G|-------------------------------------------------------------------------|
D|-3-----------------------------------3-----------------------------------|
A|-------------------------------------------------------------------------|
E|--------4---------4-----------------------------4------------------------|

-----------------------Key change to A--------------------------------------

G|-------------------------------------------------------------------------|
D|--------5----------------------------------------5-----------------------|
A|-5-----------------------8---------------5-------------------------------|
E|----------------6----------------8-----------------------6---------------|

G|-------------------------------------------------------------------------|
D|--------5----------------------------------------5-----------------------|
A|-5-----------------------8---------------5-------------------------------|
E|----------------6----------------8-----------------------6---------------|

outro
G|-------------------------------------------------------------------------|
D|------------5------------------------------------------------------(8)---|
A|-5------------------------------------8----------------------------------|
E|-------------------------6--------------------------8---------------6----|








| /  slide up
| \  slide down
| h  hammer-on
| p  pull-off
| ~  vibrato
| +  harmonic
| x  Mute note
===============================================================================
            
Hard to play? Try these video lessons and learn fast. | Correct




comments powered by Disqus
↑ Back to top | Tablatures and chords are parodies/interpretations of the original songs. You may use it for private study, scholarship, research or language learning purposes only