» » »

Gabe Bondoc, Your Smiling Face Tabs (ver.1)

Artists:  A B C D E F G H I J K L M N O P Q R S T U V W X Y Z # 

Your Smiling Face Tabs (ver.1)

Gabe Bondoc Tabs
 Rating:
4.2/5 (5 votes)
Your Smiling Face lessons Tabs too difficult? Try these video lessons and learn fast
1
                Your Smiling Face (Cover) by Gabe Bondoc (Covering James Taylor)

He tunes to Eb and places a Capo on 1. Tab is relative to Capo


Intro

e|-----------x-x-3-3-3------------------x-x-3-3-3-------------------------|
B|-----------x-x-1-1-1------------------x-x-1-1-1-------------------------|
G|-----------x-x-2-2-2------------------x-x-2-2-2-------------------------|
D|-0-2-3-4-5-x-x-3-3-3--------0-2-3-4-5-x-x-3-3-3-------------------------|
A|-----------x-x-x-x-x------------------x-x-x-x-x-------------------------|
E|-----------x-x-3-3-3------------------x-x-3-3-3-------------------------|

Verse 1

e|-0----0----0-------3--3-33--55-55-33------------------------------------|
B|-1----1----1----5--1--5-55--55-66-11------------------------------------|
G|-0----0----0----5--2--4-44--55-55-22------------------------------------|
D|-2----0----2----3--3--5-55--55-77-33------------------------------------|
A|-3----2----0----5--x--3-33--77-55-xx------------------------------------|
E|-------------------3--------55----33------------------------------------|


e|-0----0----0-------3--3-33--55-55-3---x---------------------------------|
B|-1----1----1----5--1--5-55--55-66-1---x---------------------------------|
G|-0----0----0----5--2--4-44--55-55-2---4---------------------------------|
D|-2----0----2----3--3--5-55--55-77-3---2---------------------------------|
A|-3----2----0----5--x--3-33--77-55-x---x---------------------------------|
E|-------------------3--------55----3---4---------------------------------|

Pre-Chorus 1

e|---------------------------------3---------3-----3-----5----------------|
B|-5---1---1---1---1---0---5---1---1--11--5--1-----3-----3----------------|
G|-5---0---2---2---2---4---5---0---2--22--5--2-----2-----4----------------|
D|-5---0---3---1---3---2---5---3---3--33--3--3-----x-----5----------------|
A|---------------------------------x--33--5--x-----2-----x----------------|
E|-5---0---1---2---3---4---5---0---3--33-----3-----------5----------------|

Verse 2

e|-2--2--3--3--3--3-----x--5----77--7--5----------------------------------|
B|-3--3--3--3--3--3--3--x--7----77--8--3----------------------------------|
G|-2--2--2--2--2--2--2--x--6----77--7--4----------------------------------|
D|-0--x--0--0--0--0--4--x--7----77--9--5----------------------------------|
A|----4--2--0--x--x--2--x--5----99--7--x----------------------------------|
E|-------------3--2-----x--5----77-----5----------------------------------|

e|-5--3--3--3--3--0-0--x---5--------5--x----------------------------------|
B|-7--3--3--3--3--3-3--x---7--7--7--3--x----------------------------------|
G|-6--2--2--2--2--2-2--x---6--7--7--4--6----------------------------------|
D|-7--0--0--0--0--4-0--x---7--7--5--5--4----------------------------------|
A|-5--2--0--x--x--2-2--x---5-----7--x--x----------------------------------|
E|-5--------3--2----0--x---5--7-----5--6----------------------------------|

Pre-Chorus 2

e|---------3----------------------------------5-------------5---7---------|
B|-7---3---3---3---3---0---7---3-----3--3--3--3-------------3---5---------|
G|-7---2---2---4---4---6---7---2-----2--2--2--4-------------4---6---------|
D|-7---0-------3---5---4---7---0-----0--0--4--5-------------5---7---------|
A|-----------------------------------x--x--2--x-------------x---x---------|
E|-7---2---3---4---5---6---7---2-----3--2-----5---0-2-3-4-0-5---7---------|


Chorus

e|-0-----2--x----0-----2--2-4-2-------------------------------------------|
B|-0--4--2--x----0--4--2--2-2-2-------------------------------------------|
G|-1--4--2--x----1--4--2--2-2-2-------------------------------------------|
D|-2--2--2--x----4--2--2--2-2-2-------------------------------------------|
A|-2--4--4--x----2--4--4--4-4-4-------------------------------------------|
E|-0-----2--x----0-----2--2-2-2-------------------------------------------|

e|-0-----2--4--2---0-----2--4--2------------------------------------------|
B|-0--4--2--2--2---0--4--2--2--2------------------------------------------|
G|-1--4--2--2--2---1--4--2--2--2------------------------------------------|
D|-4--2--2--2--2---4--2--2--2--2------------------------------------------|
A|-2--4--4--4--4---2--4--4--4--4------------------------------------------|
E|-0-----2--2--2---0-----2--2--2------------------------------------------|

e|-0-----2--4-2-----0-----2--2-4-2----------------------------------------|
B|-0--4--2--2-2-----0--4--2--2-2-2----------------------------------------|
G|-1--4--2--2-2-----1--4--2--2-2-2----------------------------------------|
D|-2--2--2--2-2-----2--2--2--2-2-2----------------------------------------|
A|-2--4--4--4-4-----2--4--4--4-4-4----------------------------------------|
E|-0-----2--2-2--\--0-----2--2-2-2----------------------------------------|

e|-0-----2--4--2---0-----2--4--2------------------------------------------|
B|-0--4--2--2--2---0--4--2--2--2------------------------------------------|
G|-1--4--2--2--2---1--4--2--2--2------------------------------------------|
D|-4--2--2--2--2---4--2--2--2--2------------------------------------------|
A|-2--4--4--4--4---2--4--4--4--4------------------------------------------|
E|-0-----2--2--2---0-----2--2--2------------------------------------------|

Fade out!

************************************

| /   slide up
| \   slide down
| h   hammer-on
| p   pull-off
| ~   vibrato
| +   harmonic
| x   Mute note
| b   Bend
| pb  Pre-bend
| br  Bend release
| pbr Pre-bend release
| brb Bend release bend

************************************
            
Submit corrections

comments powered by Disqus
↑ Back to top | Gabe Bondoc Tabs for Your Smiling Face. Lyrics for acoustic guitar and electric guitar. 1 Tablatures and chords are parodies/interpretations of the original songs. You may use it for private study, scholarship, research or language learning purposes only