» » »

Gabe Bondoc, Trenches Tabs (ver.1)

Artists:  A B C D E F G H I J K L M N O P Q R S T U V W X Y Z # 

Trenches Tabs (ver.1)

Gabe Bondoc Tabs
Rating:
5/5 (2 votes)
Hard to play? Try these video lessons and learn fast.
                ----------------------------------------------------
             “Trenches” by Gabe Bondoc
----------------------------------------------------

Tuning: Standard

     INTRO/VERSE (palm mute variations)
e|------------------------------------------|
B|--3--3--3--3-3----------------------------|
G|--0--0--0--0-0----------------------------|
D|--2--0--4--0-4----------------------------|
A|--3--2--5--2-5----------------------------|
E|--0--3-----0------------------------------|

     Pre-CHORUS     CHORUS
e|-------------|-------------------3--------|
B|--1---3------|--3-3-0--3--0--3---3-3------|
G|--0---4------|--0----2-0-2-2-0---0-0------|
D|--2---0------|--2------0-----4---0-4------|
A|--0---5------|--3------2-----5---2-5------|
E|-------------|--0------3------------------|

     BRIDGE *really unsure about this :( 
e|--0----2--2-------------------------------|
B|--1----3--1--3--3--3--3?------------------|
G|--0----2--2--0--2--0--4?------------------|
D|--2----0--0--0--0--0--3?------------------|
A|--0----------2--0--2--0?------------------|
E|-------------0--2--3----------------------|
            

comments powered by Disqus
↑ Back to top | Gabe Bondoc Tabs for Trenches. Lyrics for acoustic guitar and electric guitar. Tablatures and chords are parodies/interpretations of the original songs. You may use it for private study, scholarship, research or language learning purposes only