» » »

Gabe Bondoc, Stronger Than Tabs (ver.4)

Artists:  A B C D E F G H I J K L M N O P Q R S T U V W X Y Z # 

Stronger Than Tabs (ver.4)

Gabe Bondoc Tabs
 Rating:
4/5 (11 votes)
Stronger Than lessons Tabs too difficult? Try these video lessons and learn fast
                Stronger Than
Hi, I'm Gabe
Gabe Bondoc

Standard Tuning
Half a step down for the album version

Intro 

e|------------------|
B|------------------|
G|------------7h9---|
D|------5-7/9-------|
A|--5-7-------------|
E|------------------|


Verses and Chorus

(PATTERN 1)
e|-----------------------------------------------------|
B|--8-8---88--8-8--5-5---55--5-5--3-3---33--3-3----3---|
G|--9-9---99--9-9--5-5---55--5-5--4-4---44--4-4----4---|
D|--9-9---99--9-9--5-5---55--5-5--4-4---44--4-4----4---|
A|--x---------x-x--x---------x-x--x---------x-x----x---|
E|--8---8-----8-8--5---5-----5-5--3---3-----3-3--0-3---|


Bridge

Play 1 time
e|----x-------------------|
B|--5-x-5-5-5/6-7--8--8---|
G|--5-x-5-5-5/6-7--7--7---|
D|--5-x-5-5-5/6-7--9--9---|
A|--x-x-x-x-x-x-x--7------|
E|--5-x-5-5-5/6-7---------|

Play the rest
e|----x-------------------|
B|--5-x-5-5-5/6-7--7--6---|
G|--5-x-5-5-5/6-7--7--7---|
D|--5-x-5-5-5/6-7--7--6---|
A|--x-x-x-x-x-x-x--x--7---|
E|--5-x-5-5-5/6-7--7------|
            
Submit corrections

comments powered by Disqus
↑ Back to top | Gabe Bondoc Tabs for Stronger Than. Lyrics for acoustic guitar and electric guitar. Tablatures and chords are parodies/interpretations of the original songs. You may use it for private study, scholarship, research or language learning purposes only