>
 >
She Is 1

She Is 1 Guitar Tabs

Gabe Bondoc - She Is 1 chords, tabs, tablatures, lyrics

Guitar lessons | Add/correct | Request | Top 50 tabs Artists:  A B C D E F G H I J K L M N O P Q R S T U V W X Y Z 0-9

She Is 1 Guitar Tabs – Gabe Bondoc

CD, Sheet music, Poster

Do you like She Is 1? Share with your friends now
TabsTabs v2Tabs v3
|| Gabe Bondoc: She is ||

Tuning: 
E A D G B D  
CAPO 1 


Intro: 
D|---------0-----------0-----------0-----------------0---------| 
B|--8-----------7-----------5---------------5/7----------------| 
G|------0-----------0-----------0-------0---------0------------| 
D|-------------------------------------------------------------| 
A|--7-----------5-------5/3-3--------3------3/5---------5/7----| 
E|-------------------------------------------------------------| 

D|---------0-----------0-----------0-------------------0-------| 
B|--8-----------7-----------5-------------------10-------------| 
G|------0-----------0-----------0-------0-----------0----------| 
D|-------------------------------------------------------------| 
A|--7-----------5-------5/3-3--------3------7/9-9---------9/7--| 
E|-------------------------------------------------------------| 

D|---------0-----------0-----------0----0----------0---0-------| 
B|--8-----------7-----------5---------------3----------1-------| 
G|------0-----------0-----------0---------------0------2-------| 
D|-----------------------------------------------------2-------| 
A|--7-----------5-------5/3-3--------3------2----------0-------| 
E|-------------------------------------------------------------| 

D|----------5------| 
B|--------3--------| 
G|------0----------| 
D|----0------------| 
A|-----------------| 
E|--2--------------| 


Verse: 
D|---------0-----------0-----------------0-----------0---------| 
B|--8-----------7-------------7/5-5-----------7---------7/8----| 
G|------0-----------0-----------------0-----------0------------| 
D|-------------------------------------------------------------| 
A|--7-----------5----------5------3-----------5----------------| 
E|-------------------------------------------------------------| 
                                                             X2

D|---------0-----------0-----------------0-----------0---------| 
B|--8-----------7-------------7/5-5-----------3---------3------| 
G|------0-----------0-----------------0-----------0--------0---| 
D|-------------------------------------------------------------| 
A|--7-----------5----------5------3-----------2----------------| 
E|-------------------------------------------------------------| 

D|------------5---------------5---------| 
B|------------------------3-----3-------| 
G|--------5-----5-------0---------0-----| 
D|------7---------7---0-----0-----------| 
A|----7---------------------------------| 
E|--5---------------2-------------------| 

D|---------0-----------0-----------------0-----------0---------| 
B|--8-----------7-------------7/5-5-----------7---------7/8----| 
G|------0-----------0-----------------0-----------0------------| 
D|-------------------------------------------------------------| 
A|--7-----------5----------5------3-----------5----------------| 
E|-------------------------------------------------------------| 
                                                             X2

D|---------0-----------0-----------------0-----------0---------| 
B|--8-----------7-------------7/5-5-----------3---------3------| 
G|------0-----------0-----------------0-----------0--------0---| 
D|-------------------------------------------------------------| 
A|--7-----------5----------5------3-----------2----------------| 
E|-------------------------------------------------------------| 

D|-----------5---------------------| 
B|----------------------1----1-----| 
G|---------5---5--------2----2-----| 
D|-------7-------7-----------------| 
A|-----7-----------7---------------| 
E|---5---------------2-----2-------| 



Chorus:
D|---------0-----------0-----------------0-----------0---------| 
B|--8-----------7-------------7/5-5-----------10--------10-----| 
G|------0-----------0-----------------0-----------0---------0--| 
D|-------------------------------------------------------------| 
A|--7-----------5----------5------3-----------9----------------| 
E|-------------------------------------------------------------| 
                                                             X2

D|---------0-----------0-----------------0-----------0---------| 
B|--8-----------7-------------7/5-5-----------3---------3------| 
G|------0-----------0-----------------0-----------0--------0---| 
D|-------------------------------------------------------------| 
A|--7-----------5----------5------3-----------2----------------| 
E|-------------------------------------------------------------| 

D|------------5---------------5---------| 
B|------------------------3-----3-------| 
G|--------5-----5-------0---------0-----| 
D|------7---7-----7---0-----0-----------| 
A|----7---------------------------------| 
E|--5---------------2-------------------| 



Solo:
D|--------0----------0------------0----------------0----| 
B|--8---------10------------12-------12-----13----------| 
G|-----0----------0-------------0---------------0-------| 
D|------------------------------------------------------| 
A|--7---------9--------9/10-10----------10--12----------| 
E|------------------------------------------------------| 

D|------------0----------------------0-----------0------| 
B|--10---10-----10-------10-----10-----10--8------------| 
G|-----0------0----0---0------0---------------0---------|
D|------------------------------------------------------| 
A|--9-------9--------9------9------9-------7------------| 
E|------------------------------------------------------| 

D|----------0------------0----------------0-------------| 
B|---10------------12-------12-----15--------13----13---| 
G|-------0-------------0---------------0---------0------| 
D|------------------------------------------------------| 
A|---9--------9/10-10----------10--14--------12---------| 
E|------------------------------------------------------| 

D|--------0--------| 
B|----------13-----| 
G|-----0-------0---| 
D|-----------------| 
A|--12-------------| 
E|-----------------| 


Well that's for most of the song so the rest is for you to figre out.

pls rate. thanks.

Your welcome.
                   -Odie





Comments


Popular Gabe Bondoc tabs & chords
Gentlemen Don't 1 Chords
Just Friends Chords
Whether Or Not Chords
Hairclip In My Pocket Tabs
I Remember Tabs
One Night Only Tabs
One Touch Tabs
Stronger Than Intro Tabs
Temporary Tabs
Sleigh Ride Ukulele


Song lyrics



↑ Back to top | Tablatures and chords are parodies/interpretations of the original songs. You may use it for private study, scholarship, research or language learning purposes only
© 2014 AZChords.com Contact us | Privacy policy | DMCA | Add/correct tabs | Request tabs | Top 50 tabs