» » »

Gabe Bondoc, Part Of That World Tabs (ver.1)

Artists:  A B C D E F G H I J K L M N O P Q R S T U V W X Y Z # 

Part Of That World Tabs (ver.1)

Gabe Bondoc Tabs
 Rating:
4.6/5 (9 votes)
Part Of That World lessons Tabs too difficult? Try these video lessons and learn fast
1
                
Capo 2!! pretty decent took me forever to figure these are the chords he uses u can 
out the strumming and the way he picks its very easy. got most of the chords some are a 
off but it still sounds nice so have fun and this is a real chick grabber right here!lol


e|-0---0---0---0-------0---0----------------------------------------------|
B|-0---0---0---0---5---0---0----------------------------------------------|
G|-1---6---8---4---4---2---4----------------------------------------------|
D|-4---7---9---4---3---2---4----------------------------------------------|x2
A|-2---x---x---x---4---x---2----------------------------------------------|
E|-0---5---7---4---x---2--------------------------------------------------|
       \2x/


Ive got gadgets and gizmos...
e|---0---0---0---0----------------------------------------------------------|
B|---0---0---0---0----------------------------------------------------------|
G|---6---4---4---3----------------------------------------------------------|
D|---7---4---2---4----------------------------------------------------------|
A|---x---x---4---4----------------------------------------------------------|
E|---5---4-------2----------------------------------------------------------|

You want thingamabobs...
e|---0---0---0---0---0---2---------------------------------------------------|
B|---0---0---0---0---5---0---------------------------------------------------|
G|---6---4---4---3---6---4---------------------------------------------------|
D|---7---4---2---4---4---4---------------------------------------------------|
A|---x---x---4---4---5---2---------------------------------------------------|
E|---5---4-------2-----------------------------------------------------------|

I wanna be were...
e|---0---0---0---0-----------------------------------------------------------|
B|---0---0---0---0-----------------------------------------------------------|
G|---1---4---6---8-----------------------------------------------------------|
D|---4---4---7---9-----------------------------------------------------------|
A|---2---x---x---x-----------------------------------------------------------|
E|---0---4---5---7-----------------------------------------------------------|


walkin around on those..
e|---0---0---0---0-----------------------------------------------------------|
B|---0---0---0---0-----------------------------------------------------------|
G|---4---4---6---8-----------------------------------------------------------|
D|---2---4---7---9-----------------------------------------------------------|
A|---4---x---x---x-----------------------------------------------------------|
E|-------4---5---7-----------------------------------------------------------|


flippin ur fins...
e|---0---0---0---0-------------------------------------------------------------|
B|---0---0---0---0-------------------------------------------------------------|
G|---1---4---6---8-------------------------------------------------------------|
D|---4---4---7---9-------------------------------------------------------------|
A|---2---x---x---x-------------------------------------------------------------|
E|---0---4---5---7-------------------------------------------------------------|
e|-----------------------------------------------------------------------------|


strollin along on those...
e|---0---0---0---0-----------------------------------------------------------|
B|---0---0---0---0-----------------------------------------------------------|
G|---4---4---6---8-----------------------------------------------------------|
D|---2---4---7---9-----------------------------------------------------------|
A|---4---x---x---x-----------------------------------------------------------|
E|-------4---5---7-----------------------------------------------------------|

up were they walk...
e|-------0---0---0---------0----0---0----------------------------------------|
B|---5---0---0---0---------0----0---0----------------------------------------|
G|---4---4---6---4---------2----4---1----------------------------------------|
D|---2---4---7---4---------2----4---4----------------------------------------|
A|---4---x---x---x---------x----2---2----------------------------------------|
E|-------4---5---4---------2--------0----------------------------------------|

is hard to figure out

| /  slide up
| \  slide down
| h  hammer-on
| p  pull-off
| ~  vibrato
| +  harmonic
| x  Mute note
===============================================================================
            
Submit corrections

comments powered by Disqus
↑ Back to top | Gabe Bondoc Tabs for Part Of That World. Lyrics for acoustic guitar and electric guitar. 1 Tablatures and chords are parodies/interpretations of the original songs. You may use it for private study, scholarship, research or language learning purposes only