» » »

Gabe Bondoc, One Night Only Tabs (ver.1)

Artists:  A B C D E F G H I J K L M N O P Q R S T U V W X Y Z # 

One Night Only Tabs (ver.1)

Gabe Bondoc Tabs
 Rating:
4.3/5 (6 votes)
One Night Only lessons Tabs too difficult? Try these video lessons and learn fast
                INTRO:

e|----------------------0---R--|
B|----------------------0---E--|
G|----------------------1---P--|
D|-------2-2-2-2-2------4---E--|  4 TIMES
A|---2h4----------------2---A--|
E|----------------------0---T--|

VERSE:

e|----------------------0----------------------------0-----0--(--x------0----|
B|----------------------0----------------------------4-----0--|--x------4----|
G|----------------------1----------------------------4-----2--|--x------4----|
D|-------2-2-2-2-2------4-----------2-2-2-2-2-2------2-----2--|--2---2--2----|
A|---2h4----------------2------2h4-------------------4-----0--|--2---3--4----|
E|----------------------0----------------------------x-----x--(--0---x--x----|
                                                               {first time}

second time:
e|---x----x----0----x---x----x------|
B|---x----x----4----x---x----2------|
G|---x----x----4----4---9----2------|
D|---2----2----2----4---9----2------|
A|---2----3----4----6---7----2------|
E|---0----x----x----x---x----x------|

CHORUS:

e|----0----0----0----3-----x---------------------------------|
B|----0----4----0----3-----2---------------------------------|
G|----1----4----2----0-----2---------------------------------|
D|----4----2----2----2-----2---------------------------------|
A|----2----4----0----3-----2---------------------------------|
E|----0----x----x----x-----x---------------------------------|

BRIDGE:

e|----x------x-----x----x----x----5----7----x------|
B|----2------4-----4----2----4----5----7----3------|
G|----2------4-----4----2----4----5----7----3------|
D|----2------4-----2----2----4----6----9----3------|
A|----x------x-----4----x----x----6----9----3------|
E|----2------4-----x----2----4----5----7----x------|

CHORUS 2:

e|---1----x-----1-----4----x----|
B|---1----5-----1-----4----3----|
G|---2----5-----3-----x----3----|
D|---3----3-----3-----3----3----|    2 TIMES
A|---3----5-----1-----4----3----|
E|---1----x-----x-----x----x----|

end with:

e|--1--
B|--1--
G|--2--
D|--3--
A|--3--
E|--1--
            
Submit corrections

comments powered by Disqus
↑ Back to top | Gabe Bondoc Tabs for One Night Only. Lyrics for acoustic guitar and electric guitar. Tablatures and chords are parodies/interpretations of the original songs. You may use it for private study, scholarship, research or language learning purposes only