» » »

Gabe Bondoc, My Plan Tabs (ver.2)

Artists:  A B C D E F G H I J K L M N O P Q R S T U V W X Y Z # 

My Plan Tabs (ver.2)

Gabe Bondoc Tabs
 Rating:
4.2/5 (5 votes)
My Plan lessons Tabs too difficult? Try these video lessons and learn fast
1
                Enjoy. this is my first tab i hav ever done so hope u guys understand it enough

Riff 1
E|--------------------------------------------------------------------------|
B|---2--2h3-- 3--------3---3------------------------------------------------|
G|---2--2----2--2-----0----0------------------------------------------------|
D|---2--4---4----4---4-----2------------------------------------------------|
A|------2--2--------2------0------------------------------------------------|
E|---2----------------------------------------------------------------------|
riff 2
E|--------------------------------------------------------------------------|
B|--10------7--------8------5-----------------------------------------------|
G|--9-------7--------7------6-----------------------------------------------|
D|--11------7--------9------7-----------------------------------------------|
A|--9----------------7------0-----------------------------------------------|
E|----------7---------------------------------------------------------------|
riff 3
E|--------------------------------------------------------------------------|
B|------10-------7-------8--------8-----------------------------------------|
G|-----9-------7-------7--------7-------------------------------------------|
D|---11------7-------9--------8---------------------------------------------|
A|--9--------------7--------7-----------------------------------------------|
E|--------7-----------------------------------------------------------------|

Lyrics

Well I wrote you a song, on a napkin today
It didn't take me too long already knew what to say.
But it would've clearly been wrong cause it begged you to stay.  
So I threw it away, threw it away.
Because, 

Even though I like to keep you mine, 
My plan is not to change your mind           
I lock the feelings deep inside, 
For another time, For another time, 
(Baby)
(Repeat x2)

Don't get me twisted
Cause I admire everything that you're doing
You have my best wishes
And, and I know that you're gonna get through it
So girl if there's something that you're needing, 
To those feelings be true, 
You can only love me, As much as you love you
But girl I know you know that's the truth, yeah.

Even though I'd like to keep you mine, 
My plan is not to change your mind
I'll lock the feelings deep inside, 
For another time, For another time, 
(Baby)
(Repeat x2)

I'm suppressing my fight
Cause I know that you're right
Girl you gotta do what you gotta do
So you could be a better you
I put my questions on hold
And even though I feel cold
I'll be bold for you
And trust that I know My Plan

Yeah, Don't you change your mind for me, Baby yeah
Even though I like to keep you mine, 
My plan is not to change your mind
Don't Change your mind.
            
Submit corrections

comments powered by Disqus
↑ Back to top | Gabe Bondoc Tabs for My Plan. Lyrics for acoustic guitar and electric guitar. 1 Tablatures and chords are parodies/interpretations of the original songs. You may use it for private study, scholarship, research or language learning purposes only