» » »

My Plan Tabs (ver.1)

Artists:  A B C D E F G H I J K L M N O P Q R S T U V W X Y Z # 

My Plan Tabs (ver.1)

Gabe Bondoc
Rating:
5/5 (1 vote)

Hard to play? Try these video lessons and learn fast.
                This song is called: My Plan
Sung and composed By: Gabe Bondoc

Capo on 1st Fret

Verses:
-2------x---x------x-|
-x------2---2------0-|
-2------4---4------2-|
-2------2---0------0-|
-2------3---3------3-|
-x------x---x------x-|

Chorus:
-x------7---x-----(5--)
-9------x---7------0--)
-11-----7---9------7--)
-9------7---7------6--)
-10-----7---8------5--)
-x------x---x------x--)

Bridge*:
-x------7---x------x---x-|
-9------x---7------7---0-|
-11-----7---9------8---5-|
-9------7---7------7---4-|
-10-----7---8------8---3-|
-x------x---x------x---x-|

Ending Chorus:(Same as the verse)
-2------x---x------x-|
-x------2---2------0-|
-2------4---4------2-|
-2------2---0------0-|
-2------3---3------3-|
-x------x---x------x-|


*Note in the bridge u can just pluck =)
**Sorry if i've got some mistakes i just used my ear
  to fix this TAB**


Hope you Enjoy :)



Here's the Lyrics

Verse 1:
Well I wrote you a song, on a napkin today
It didn't take me that long already knew what to say.
But it would've clearly been wrong cause it begged you to stay.
So I threw it away, threw it away.
Because,

Chorus:
Even though I like to keep you mine,
My plan is not to change your mind
I lock the feelings deep inside,
For another time, For another time,
(Repeat x2)

Verse 2:
Don't get me twisted
Cause I admire everything that you're doing
You have my best wishes
And, and I know that you're gonna get through it
So girl if this is something that you're needing,
To those feelings be true,
You can only love me, As much as you love you
But girl I know you know that it's the truth, yeah.

Chorus:
Even though I like to keep you mine,
My plan is not to change your mind
I lock the feelings deep inside,
For another time, For another time,
(Repeat x2)

Bridge:
I'm suppressing my fight
Cause I know that you're right
Girl you gotta do what you gotta do
So you could be a better you
I put my questions on hold
And even though I feel cold
I'll be bold for you
And trust that I know My Plan

Ending Chorus:
Yeah, Don't you change your mind for me, Baby yeah
Even though I like to keep you mine,
My plan is not to change your mind
Don't Change your mind.
            
Hard to play? Try these video lessons and learn fast. | Correct




comments powered by Disqus
↑ Back to top | Tablatures and chords are parodies/interpretations of the original songs. You may use it for private study, scholarship, research or language learning purposes only