» » »

Gabe Bondoc, Jacobs Blues Im What You Need Tabs (ver.1)

Artists:  A B C D E F G H I J K L M N O P Q R S T U V W X Y Z # 

Jacobs Blues Im What You Need Tabs (ver.1)

Gabe Bondoc Tabs
 Rating:
4/5 (4 votes)
Jacobs Blues Im What You Need lessons Tabs too difficult? Try these video lessons and learn fast
                Jacob’s Blues (I’m What You Need) by Gabe Bondoc


He tunes to Eb and places a Capo on 2. Tab is relative to the Capo. 

Intro and Verse 1
For the verse, he mixes up the hammer-ons on the chords and plucking at the end of each phrase

e|-----------x--------------x----------------0h2-0---0---0-------------------|
B|----5---5--x--5-5-5--3--3-x--3----3--3--2--2-----2-0h1-1-------------------|
G|----4---4--x--4-4-4--2--2-x--2----2--2--1--1-------2---2-------------------|
D|----4h6-6--x--6-7-6--4--4-x--2h4--2--4--2--2----2--2---2-------------------|
A|-----------x---------2--2-x--2----2--2--0--0-----------0-------------------|
E|----0---0--x--0-0-0-------x------------------------------------------------|

Chorus

Pluck 1st chord once quickly           Play around with plucking this last chord
e|------------------------------0--0--0--------------------------------------|
B|----0---2---5---4--2-------0--0--0--0--------------------------------------|
G|----1---2---5---4--4--1----2--2--2--1--------------------------------------|
D|----0---2---5---2--4--2----2--2--2--4--------------------------------------|
A|----------------4--2--1-------x--2--2--------------------------------------|
E|----1---2---5--------------2--2--2--0--------------------------------------|

Verse 2

Same as Verse 1
e|-----------x--------------x----------------0h2-0---0---0-------------------|
B|----5---5--x--5-5-5--3--3-x--3----3--3--2--2-----2-0h1-1-------------------|
G|----4---4--x--4-4-4--2--2-x--2----2--2--1--1-------2---2-------------------|
D|----4h6-6--x--6-7-6--4--4-x--2h4--2--4--2--2----2--2---2-------------------|
A|-----------x---------2--2-x--2----2--2--0--0-----------0-------------------|
E|----0---0--x--0-0-0-------x------------------------------------------------|

Chorus 2
                                Strum the last 3 chords
e|------------------------------0--0--0--------------------------------------|
B|----0---2---5---4--2-------0--0--0--0--------------------------------------|
G|----1---2---5---4--4--1----2--2--2--2--------------------------------------|
D|----0---2---5---2--4--2----2--2--2--1--------------------------------------|
A|----------------4--2--1-------x--2--2--------------------------------------|
E|----1---2---5--------------2--2--2--0--------------------------------------|

Bridge
            Pluck quickly       Pluck quickly
            ↓                   ↓
e|----0---4-3-2---2------0---4----2---2---0----------------------------------|
B|----0---4-3-2---2------0---4----2---2---0----------------------------------|
G|----1---4-3-2---2------1---4--3-2---2---1----------------------------------|
D|----4---4-3-2---2------4---4--2-2---2---4----------------------------------|
A|----2---6-5-4---2------2---6----4---2---2----------------------------------|
E|----0---4-3-2---2------0---4--3-2---2---0----------------------------------|

Solo

e|---------------------------0-----------0-0h2-0---0---0---------------------|
B|-------------------5---3---2-----5---3-2-2-----2-0h1-1---------------------|
G|-------------------4---2---1-----4---2-1-1-------2---2---------------------|
D|--------2-4-2-4/6--6---4---2-----6---4-2-2----2--2---2---------------------|
A|----2/4----------------2---0---------2-0-0-------0---0---------------------|
E|-------------------0-------------0-----------------------------------------|

Last Chorus

Pluck first chord quickly again         This chord coincides with the high note he 
sings, pluck once
e|------------------------------------------------0---0-----0----------------|
B|----0-2---5---4---2-------0-------3---4------0--0---0--2--0----------------|
G|----1-2---5---4---4---1---2---2---4---4------2--2---4--2--1----------------|
D|----0-2---5---2---4---2---2---1---4---3------2--2---2--2--4----------------|
A|--------------4---2---1-------2-------4---------2---4--2--2----------------|
E|----1-2---5---------------2---0---4----------2--2---------0----------------|
            
Submit corrections

comments powered by Disqus
↑ Back to top | Gabe Bondoc Tabs for Jacobs Blues Im What You Need. Lyrics for acoustic guitar and electric guitar. Tablatures and chords are parodies/interpretations of the original songs. You may use it for private study, scholarship, research or language learning purposes only