» » »

I Remember Tabs (ver.1)

Artists:  A B C D E F G H I J K L M N O P Q R S T U V W X Y Z # 

I Remember Tabs (ver.1)

Gabe Bondoc
Rating:
4/5 (1 vote)
Tabs too difficult? Try these video lessons and learn fast.
                -----------------------------------------------------------------------
I Remember (Cover) By Gabe Bondoc
-----------------------------------------------------------------------


Performed by: Gabe Bondoc
Originally written by: Keyshia Cole

Tuning: Half Step Down
Capo 4

to this one by Nate B.
Enjoy!

(These are just the tabs that I interpreted from his chords. In
no way do I think that this is the only way to play this song. Gabe slides and 
but I’ll leave that up for you. These tabs are solely meant
as a guide, feel free to explore with them and add as you wish!)


Verse/Chorus
            Dm7   Bm7   Em7   A7sus
eb|----------2-----2-----------(5)------------------------------------|
Bb|----------2-----3-----3------3-------------------------------------|
Gb|----------2-----2-----0------0-------------------------------------|
Db|----------0-----4-----4------2-------------------------------------|
Ab|----------------2----(2)-----0-------------------------------------|
Eb|----------------------0--------------------------------------------|

Bridge
            G#m7b5      C#9          F#m7                   x2
eb|-----------------------------------------------|-------------------|
Bb|-----------3----------2------------2-----------|-------------------|
Gb|-----------4----------4------------2-----------|-------------------|
Db|-----------4----------3------------2-----------|-------------------|
Ab|-----------x----------x------------x-----------|-------------------|
Eb|-----------4----------4------------2-----------|-------------------|

            C#m7b5      F#7         Bm7         Am7
eb|----------------------------------2------------------|
Bb|-----------5\---------3-----------3-----------1------|
Gb|-----------6\---------3-----------2-----------2------|
Db|-----------6\---------2-----------4-----------2------|
Ab|-----------x----------x-----------2------------------|
Eb|-----------6\---------2------------------------------|

              G         G/A
eb|---------------------------------------|
Bb|-----------3----------3-------4--------|
Gb|-----------2----------4-------5--------|
Db|-----------0----------5-------6--------|
Ab|---------------------------------------|
Eb|-----------3----------5-------6--------|

Once you step up from G/A move everything up 1/2 step (That basically means
move the capo up one fret to fret 5 in this case) and play the chorus
relative to the new position of the capo.

Please also note: Gabe plays Bm7 in the bridge in a different voicing than
I have tabbed here.

Cheers,
    Joel

| /  slide up
| \  slide down
| h  hammer-on
| p  pull-off
| ~  vibrato
| +  harmonic
| x  Mute note or Slap
=======================================================================
            
Tabs too difficult? Try these video lessons and learn fast.


comments powered by Disqus
↑ Back to top | Tablatures and chords are parodies/interpretations of the original songs. You may use it for private study, scholarship, research or language learning purposes only