>
 >
Hot Chocolate

Hot Chocolate Guitar Tabs

Gabe Bondoc - Hot Chocolate chords, tabs, tablatures, lyrics

Guitar lessons | Add/correct | Request | Top 50 tabs Artists:  A B C D E F G H I J K L M N O P Q R S T U V W X Y Z 0-9

Hot Chocolate Guitar Tabs – Gabe Bondoc

CD, Sheet music, Poster

Do you like Hot Chocolate? Share with your friends now
Tabs
-----------------------------------------------------------------------------
-----------------------------------------------------------------------------

this is for you, ben.

Tuning: Standard Capo 2nd
INTRO:
e|--------8--h7-------------------------------------8--h7--------|
B|---------------8--------------5---5--------------------8----10-|
G|------------------------------5----5---7-----------------------|
D|------------------------------3--------3-----------------------|
A|------------------------------5--------5-----------------------|
E|----8--------------5--------------------------------8-----5----|

e|------------------|
B|--3---------5-----|
G|---5----5---5-x---|
D|---3--------3-x---|
A|---5--------5-x---|
E|-3----------------|
VERSE (intro-ish):
e|---------------------------------------------------|
B|----5-3-5-----3---x-----5-x----[5]----[5]--x--[5]--|
G|----4---------5---x-----5-x----[4]*---[4]*-x--[4]*-|
D|----5---------5---x-----3-x----[3]----[3]--x--[3]--|
A|--3-----------------0-5---x----[5]--5------x--[5]--|
E|------------5--------------------------------------|play as necessary

REGULAR VERSE CHORDS:
e|-----------------------------------------|
B|--5-----------3---------5-----------5----|
G|--4-----------5---------5-----------4----|
D|--5-----------5---------3-----------3----|
A|--3---------------------5-----------5----|
E|--------------5--------------------------|
   CMaj7     Amadd11     Dm9       Dm6add9

CHORUS:
e|---------------------------------|-----------------------------------|
B|---3-------5--------5-------0----|-----3---0------5---5------5----5--|
G|---2-------4--------4-------5----|-----2---0------5---5------5----4--|
D|---3-------5--------5-------5----|-----3---2------5---4------3----3--|
A|---3-------5--------3------------|-----3---2----------5------5----5--|
E|---1-------3----------------5----|-----1---0------5------------------|
    F6       G6      CMaj7   Am9         F6  Em     Am7 D79   Dm9  Dm6add9

*optional chord. you can also play regular Dm9
      CMaj7   Amadd11      Dm9     CMaj7  Amadd11  Dm9
i see the presents around the tree alright alright alright 
          CMaj7   Amadd11    Dm9    CMaj7  Amadd11  Dm9
i got you cuddlin close to me all night all night all night 

                    CMaj7  Amadd11     Dm9     Cmaj7   Amadd11 Dm9
we'll sip hot chocolate here, by the fire alright alright alright
              CMaj7     Amadd11      Dm9     Cmaj7  Dm9  Amadd11
listenin' to carols bein' sung by a choir all night all night all night

Chorus:
 F6                  G6                                  CMaj7             
bein' here with you, this time of the year, is so much sweeter than ones 
 Amadd11
before
F6      Em     Am7         D79    Dm9  Dm6add9
everything's perfect i couldn't ask for more

Verses: 

oh, i won't, won't need to wish at all this christmas 
i've got you i've got you i've got you
and oh, i don't, don't need to make a list this christmas
i've got i've you i've got you i've got you, got you
i'm mesmerized by the lights and your eyes alright alright alright
watchin' snow as it falls from the sky all night all night all night

Chorus: 

bein here with you, this time of the year is so much sweeter than ones before
everything's perfect, i couldn't ask for more

Verse: 

oh, i won't, won't need to wish at all this christmas 
I've got you i've got you i've got you
and oh, i don't, don't need to make a list this christmas
i've got you i've got you i've got you
no i won't, won't need to make a wish this christmas
i've got you i've got you i've got you
and no i don't, don't need to make a list this christmas
i've got you i've got you i've got you
got you

Chorus: 

bein' here with you this time of the year its so much sweeter than ones before
everything's perfect i couldn't ask for more

Verse: 

oh i won't, wont need to wish at all this christmas
i've got you i've got you i've got you
and oh i don't dont need to make a list this christmas
i've got you i've got you i've got you
got you


sorry if its off. just use your ears to tweak it :) i think these are the basic chords.
ps, i dont do all the flourishes gabe does





Comments


Popular Gabe Bondoc tabs & chords
Love Story Chords
When You Say Nine Chords
You're It 2 Chords
Gentlemen Dont Intro 1 Tabs
Is This Love Tabs
One Night Only Tabs
Suitcases And Travel Bags Tabs
Suitcases And Travel Bags 1 Tabs
We Match Ukulele
When You Say Nine Ukulele


Song lyrics



↑ Back to top | Tablatures and chords are parodies/interpretations of the original songs. You may use it for private study, scholarship, research or language learning purposes only
© 2014 AZChords.com Contact us | Privacy policy | DMCA | Add/correct tabs | Request tabs | Top 50 tabs