» » »

Hairclip In My Pocket Tabs (ver.1)

Artists:  A B C D E F G H I J K L M N O P Q R S T U V W X Y Z # 

Hairclip In My Pocket Tabs (ver.1)

Gabe Bondoc
Rating:
3/5 (2 votes)

Hard to play? Try these video lessons and learn fast.
                Tuning: EADGBe

Hello again and here's another song I figured out (mostly). this song won't be that
hard if you have bendable strings. and the place i got this song from just showed
the first verse and the chorus so that's all I can tab out. this tab may be confusing

Intro
e|------------------------------------------------3---|
B|-6-------------------------------5h6x-6------3x-3---|
G|-5----5--5x-5-7/9-10-9h10p9p7----5----5-----4-x-4---|
D|------5--5x-5-5/7-7--7----------5-h7x-6----5--x-5---|
A|-------------------------------5------5---3---x-3---|
E|-5----5--5x-5-5/7-7--7------------------------x-----|

+= words of Verse 1            >= words of verse 2    #=Words for chorus

Verse pt.1
e|-----------------------------------------------|
B|-6---------6-----------------------------------|
G|-5---------------------5-----5-7/9-10-9h10p9p7-|
D|-----------6-----------5-----5-5/7-7--7--------|
A|-----------5-----------------------------------|
E|-5---------------------5-----5-5/7-7--7--------|
  +Your kiss Stays on my lips
  +It's what..point...  chapstick  
  >Your scent has made...way...
  >Through...Fibers...  skin

Verse pt.2/Chorus pt.2
e|----------------------------------------------12---------------|
B|---6--------6-------8---------6--------------------------------|
G|---5----------------7---------5----------9--9--9-----2--2---1--|
D|------------6---------------------------10-10-10--10\3--3---3--|
A|------------5----------------------------------------3--3---3--|
E|---5----------------7---------5---------10----10---------------|
 +so every... lips... flavor... kiss and I Reminisce 
>and another..found...feel...  around... remember...   you
    #you left   a     Hairclip..pocket... took...    my heart     

Chorus pt.1
e|--------------------------3-------|
B|---6---------6-----3------3-------|
G|---5---------------4------4-------|
D|-------------6-----5------5-------|
A|-------------5-----3------3-------|
E|---5------------------------------|
    #you left    wet foot...doorstep
    #Your left   too soon

Order of song:
INTRO:
inro

VERSE 1:
verse pt.1 x2
verse pt.2/chorus pt.2

VERSE 2:
verse pt.1 x2
verse pt.2/chorus pt.2

CHORUS:
chorus pt.1 x2
verse pt.2/chorus pt.2

OUTRO:
intro
            
Hard to play? Try these video lessons and learn fast. | Correct




comments powered by Disqus
↑ Back to top | Tablatures and chords are parodies/interpretations of the original songs. You may use it for private study, scholarship, research or language learning purposes only