» » »

Gabe Bondoc, Ain't My Baby Tabs (ver.1)

Artists:  A B C D E F G H I J K L M N O P Q R S T U V W X Y Z # 

Ain't My Baby Tabs (ver.1)

Gabe Bondoc Tabs
 Rating:
4/5 (4 votes)
Ain't My Baby lessons Tabs too difficult? Try these video lessons and learn fast
                Standard Tuning
Optional: Capo 2

You can put the capo on fret 2 if you want. This tab is based on the studio version.
Gabe had his capo on fret 2 if you watched one of the One Night Only trailers. Either way,
you can play with or without the capo. Watch the video here --> 

Intro/Verse
e|------0---0---0---0--------|
B|------6---6---0---0---(6)--|
G|------5---5---5---5---(6)--|
D|------7---6---5---4---(5)--|
A|----3s5---5---x---x---(x)--|
E|--------------5---5---(5)--|

You play the tabs in the parenthesis once or twice quickly before switching to the
chorus. Watch the video to see what I mean.

Chorus
e|------x-------0---0-----------|
B|------1---6---0---0-----------|
G|------2---5---5---5-----------|
D|------3---6---5---4-----------|
A|------x---5---x---x-----------|
E|------1-------5---5-----------|

After you finish the song, play the Intro also as an Outro
            
Submit corrections

comments powered by Disqus
↑ Back to top | Gabe Bondoc Tabs for Ain't My Baby. Lyrics for acoustic guitar and electric guitar. Tablatures and chords are parodies/interpretations of the original songs. You may use it for private study, scholarship, research or language learning purposes only