>
 >
The Beginning Of The Twist

The Beginning Of The Twist Guitar Tabs

Futureheads - The Beginning Of The Twist chords, tabs, tablatures, lyrics

Guitar lessons | Add/correct | Request | Top 50 tabs Artists:  A B C D E F G H I J K L M N O P Q R S T U V W X Y Z 0-9

The Beginning Of The Twist Guitar Tabs – Futureheads

CD, Sheet music, Poster

Do you like The Beginning Of The Twist? Share with your friends now
Bass TabsChordsChords v2TabsUkulele
Beginning Of The Twist - The Futureheads

Intro

Strum once each time:
e|-------------------------------------------------------------------------|
B|-------------------------------------------------------------------------|
G|----5--------5--10-----5--------5----------------------------------------|
D|-5--5--3--5--5--10--8--5--3--5--5--3~~-----------------------------------|
A|-5--3--3--5--3--8---8--3--3--5--3--3~~-----------------------------------|
E|-3-----1--3---------6-----1--3-----1~~-----------------------------------|

Then come in with fast downstrokes:
e|-------------------------------------------------------------------------|
B|-------------------------------------------------------------------------|
G|-----------555-----------------555--101010------------555----------------|
D|-55555555--555--333--55555555--555--101010--88888888--555--333--55555555-|
A|-55555555--333--333--55555555--333--8-8-8---88888888--333--333--55555555-|
E|-33333333-------111--33333333---------------66666666-------111--33333333-|

I basically complied it from already exsisting tabs, and comments  and corrections. Hope 
helpful.

Jake

e|-----------|
B|-----------|
G|-777-------|
D|-777--333--|
A|-555--333--|
E|------111--|

Verse 1:

Its time to wake up
its time to change
lets get it started i feel like theres so much to rearrange
c'mon i need your help with this
so lets get it started with a kiss.

If memory serves
then why am i still waiting for it to return
my head feels like its just about to split
this morning its just a blur
today lingers on like a bad year.

Chorus:
e|-------------------------------------------------------------------------|
B|-------------------------------------------------------------------------|
G|-------------------------------55555555----------------------------------|
D|-55555555--33333333--88888888--55555555----------------------------------|
A|-55555555--33333333--88888888--33333333----------------------------------|
E|-33333333--11111111--66666666--------------------------------------------|

I can feel it, i can feel it, i can feel it coming the beginning of the twist

I can feel it, i can feel it, i can feel it coming the beginning of the twist

I can feel it, i can feel it, beginning  of the twist

e|-------------------------------------------------------------------------|
B|-------------------------------------------------------------------------|
G|-------------------------------55555555-------------777------------------|
D|-55555555--33333333--88888888--55555555---55555555--777---33-------------|
A|-55555555--33333333--88888888--33333333---55555555--555---33-------------|
E|-33333333--11111111--66666666-------------33333333--------11-------------|

I can feel it, i can feel it, i can feel it coming the beginning of the twist.

Verse 2:

We get along well
we talk a lot
i made some promises i guess that i totally forgot
Forgive me my mind is elsewhere
it feels like somebody has thrown it down the stairs

Its not good enough (I've heard the same exuses before)
I thought you knew enough abot it but you still want more
today i dont feel so ill
if only i could find the time i want to kill

Chorus:

Chorus:
e|-------------------------------------------------------------------------|
B|-------------------------------------------------------------------------|
G|-------------------------------55555555----------------------------------|
D|-55555555--33333333--88888888--55555555----------------------------------|
A|-55555555--33333333--88888888--33333333----------------------------------|
E|-33333333--11111111--66666666--------------------------------------------|

I can feel it, i can feel it, i can feel it coming the beginning of the twist

I can feel it, i can feel it, i can feel it coming the beginning of the twist

I can feel it, i can feel it, beginning of the twist

e|-------------------------------------------|
B|-------------------------------------------|
G|-------------------------------55555555----|
D|-55555555--33333333--88888888--55555555----|
A|-55555555--33333333--88888888--33333333----|
E|-33333333--11111111--66666666--------------|

I can feel it, i can feel it, i can feel it coming the beginning of the twist.

Then:

Strum once each time:
e|-------------------------------------------------------------------------|
B|-------------------------------------------------------------------------|
G|----5--------5--10-----5--------5----------------------------------------|
D|-5--5--3--5--5--10--8--5--3--5--5--3~~-----------------------------------|
A|-5--3--3--5--3--8---8--3--3--5--3--3~~-----------------------------------|
E|-3-----1--3---------6-----1--3-----1~~-----------------------------------|

Breakdown:

Just voices and bass drum:

I can feel it, i can feel it, i can feel it coming the beginning of the twist

I can feel it, i can feel it, i can feel it coming the beginning of the twist

e|-------------------------------------------------------------------------|
B|-------------------------------------------------------------------------|
G|----5--------5--10-----5--------5----------------------------------------|
D|-5--5--3--5--5--10--8--5--3--5--5--3~~-----------------------------------|
A|-5--3--3--5--3--8---8--3--3--5--3--3~~-----------------------------------|
E|-3-----1--3---------6-----1--3-----1~~-----------------------------------|

I can feel it, i can feel it, i can feel it coming the beginning of the twist

I can feel it, i can feel it, i can feel it coming the beginning of the twist

Chorus:

e|-------------------------------------------|
B|-------------------------------------------|
G|-------------------------------55555555----|
D|-55555555--33333333--88888888--55555555----|
A|-55555555--33333333--88888888--33333333----|
E|-33333333--11111111--66666666--------------|

I can feel it, i can feel it, beginning of the twist

I can feel it, i can feel it, beginning of the twist

I can feel it, i can feel it, beginning of the twist

I can feel it, i can feel it, i can feel it coming the beginning of the twist

End wtih:

e|-------------------------------------------------------------------------|
B|-------------------------------------------------------------------------|
G|----5--------5--10-----5--------5----------------------------------------|
D|-5--5--3--5--5--10--8--5--3--5--5--3~~-----------------------------------|
A|-5--3--3--5--3--8---8--3--3--5--3--3~~-----------------------------------|
E|-3-----1--3---------6-----1--3-----1~~-----------------------------------|





Comments


Popular Futureheads tabs & chords
Fallout Chords
First Day Chords
Heartbeat Song 1 Chords
Radio Heart Chords
Robot Chords
The Beginning Of The Twist Chords
Broke Up The Time Tabs
Skip To The End 2 Tabs
The Begining Of The Twist Tabs
Think Tonight Tabs


Song lyrics



↑ Back to top | Tablatures and chords are parodies/interpretations of the original songs. You may use it for private study, scholarship, research or language learning purposes only
© 2014 AZChords.com Contact us | Privacy policy | DMCA | Add/correct tabs | Request tabs | Top 50 tabs