» » »

Futureheads, The Begining Of The Twist Tabs (ver.1)

Artists:  A B C D E F G H I J K L M N O P Q R S T U V W X Y Z # 

The Begining Of The Twist Tabs (ver.1)

Futureheads Tabs
Rating:
0/5 (0 votes)
The Begining Of The Twist lessons Tabs too difficult? Try these video lessons and learn fast
                i used the other versions to compile this i think its right its my first tab so good luck



 Chords used are:G C F A#D
e----------------3-3-1-6-5-------------------------|
B----------------3-3-1-6-5-------------------------|
G----------------3-5-1-6-7-------------------------|
D----------------5-5-3-8-7-------------------------|
A----------------5-3-3-8-5-------------------------|
E----------------3---1-6---------------------------|

Intro

G, C, F,   G, C, F  
A#,C ,F ,  G, D, F x2

Verse
e-----------------------------------------------------------------|
B-----------------------------------------------------------------|
G-----------------------------------------------------------------|
D-----------------------------------------------------------------|
A-----------------3-3-3-3-------------------------3-3-3-3---------|
E-3-3-3-3-3-3-3-3---------1-1-1-1-3-3-3-3-3-3-3-3---------1-1-1-1-|
Pm. . . . . . . . . . . . . . . . . . . . . . . . . . . . . . . .

e--------------------------------------------------5-5-5--1-1-1--------|
B--------------------------------------------------5-5-5--1-1-1--------|
G--------------------------------------------------7-7-7--1-1-1--------| x2
D--------------------------------------------------7-7-7--3-3-3--------|
A-----------------3-3-3----------------------------5-5-5--3-3-3--------|
E 6-6-6-6-6-6-6-6-------1-1-1-1-3-3-3-3-3-3-3-3-----------1-1-1--------|
Pm. . . . . . . . . . . . . . . . . . . . . . . .

Chorus

G, F, A#, C, F x4  after the 4th time play  G, A#, F

the verse and the chorus reapets then 
G, C, F,   G, C, F  
A#,C ,F ,  G, D, A#

Break

e--------------------------------------------------------------------------|
B--------------------------------------------------------------------------|
G--------------------------------------------------------------------------|
D--------------------------------------------------------------------------|
A----------------------------3----------------------------3-3-3-3----------|
E-3--------1--------6-----------1-3-3-3-3-1-1-1-1-6-6-6-6----------1-1-1-1-|

Chorus

G, F, A#, C, F x4

Intro

G, C, F,   G, C, F  
A#,C ,F ,  G, D, F x1
            

comments powered by Disqus
↑ Back to top | Futureheads Tabs for The Begining Of The Twist. Lyrics for acoustic guitar and electric guitar. Tablatures and chords are parodies/interpretations of the original songs. You may use it for private study, scholarship, research or language learning purposes only