>
 >
Stupid And Shallow

Stupid And Shallow Guitar Tabs

Futureheads - Stupid And Shallow chords, tabs, tablatures, lyrics

Guitar lessons | Add/correct | Request | Top 50 tabs Artists:  A B C D E F G H I J K L M N O P Q R S T U V W X Y Z 0-9

Stupid And Shallow Guitar Tabs – Futureheads

CD, Sheet music, Poster

Do you like Stupid And Shallow? Share with your friends now
Tabs
-------------------------------------------------------------------------------
-------------------------------------------------------------------------------

Tuning: Standard

Intro 0:00
  
  Gtr 1
e|---------------|--------|---------------|--------|---------|
B|---------------|--------|---------------|--------|---------|
G|-0000----------|11111111|-0000----------|11111111|-88888888|
D|-0000-0000-----|22222222|-0000-0000-----|22222222|-99999999|
A|------0000-2222|22222222|------0000-2222|22222222|-99999999|
E|-----------0000|00000000|-----------0000|00000000|-77777777|

  Gtr 2
e|---------------|--------|---------------|--------|-77777777|
B|---------------|99999999|---------------|99999999|-77777777|
G|-0000----------|99999999|---------------|99999999|-88888888|
D|------0000-----|99999999|---------------|99999999|---------|
A|---------00----|77777777|---------------|77777777|---------|
E|-----------0000|--------|-3333-5555-0000|--------|---------|

verse 0:09

   Gtr 1
e|-0-------||--------||--------|--------|--------|--------|--------|
B|-0-------||--------||-repeat-|--------|--------|--------|--------|
G|-1-------||.------.||-till---|-----999|--------|--------|-----999|
D|-2-------||.------.||-31-----|-----999|--------|--------|-----999|
A|-2-------||--------||-secs---|-----777|--------|--------|-----777|
E|-0-------||--------||--------|--------|00000000|00000000|00000---|
" You eat....

  Gtr 2
e|---------||--------||--------|--------|--------|--------|--------|
B|---------||--------||-repeat-|--------|--------|--------|--------|
G|---------||.------.||-till---|--------|--------|--------|--------|
D|---------||.------.||-31-----|--------|--------|--------|--------|
A|---------||--------||-secs---|--------|--------|--------|--------|
E|-00000000||00000000||--------|00000000|00000000|00000000|00000000|


0:41

  Gtr 1
e|--------|--------|--------|-------|
B|--------|--------|--------|-repeat|
G|99999999|99999999|99999999|-till--|
D|99999999|99999999|99999999|-52----|
A|77777777|77777777|77777777|-secs--|
E|--------|--------|--------|-------|

  Gtr 2
e|--------|--------|--------|-------|
B|--------|--------|--------|-repeat|
G|--------|--------|--------|-till--|
D|--------|--------|--------|-52----|
A|--------|--------|--------|-secs--|
E|00000000|00000000|00000000|-------|

Bridge 0:52

  Gtr 1
e|---------------|--------|---------------|--------|
B|---------------|--------|---------------|--------|
G|-0000----------|11111110|-0000----------|11111110|
D|-0000-0000-----|22222220|-0000-0000-----|22222220|
A|------0000-2222|22222220|------0000-2222|22222220|
E|-----------0000|00000000|-----------0000|00000000|

  Gtr 2
e|---------------|--------|---------------|--------|
B|---------------|99999990|---------------|99999990|
G|-0000----------|99999990|-0000----------|99999990|
D|------0000-----|99999990|------0000-----|99999990|
A|---------00----|77777770|---------00----|77777770|
E|-----------0000|--------|-----------0000|--------|

Break 0:57

e|---------------|--------------|---------------|---------------|
B|---------------|--------------|---------------|---------------|
G|------11----444|-----11----444|------11----444|------11----444|
D|-22-------44---|-22------44---|-22-------44---|-22-------44---|
A|--------44-----|-------44-----|--------44-----|--------44-----|
E|---44----------|---44---------|---44----------|---44----------|
                                 "an alpha male.....
e|---------------|--------------|---------------|---------------|
B|---------------|-----11-------|---------------|------11-------|
G|-22---------444|-22--------444|-22---------444|-22---------444|
D|----------44---|---------44---|----------44---|----------44---|
A|--------44-----|-------44-----|--------44-----|--------44-----|
E|---44-44-------|---44---------|---44-44-------|---44----------|

2nd Break 1:08

   Gtr 1
e|------------|--------------------------|--------------------------|
B|------------|-0--0-0--0--0--0-0--0-----|-0--0-0--0--0--0-0--0-----|
G|------------|-8--8-8--8--8--8-8--8-----|-8--8-8--8--8--8-8--8-----|
D|------------|-11-9-11-9--11-9-11-9-----|-11-9-11-0--11-9-11-9-----|
A|2226/7777777|--------------------------|--------------------------|
E|0004/5555555|-----------------------000|-----------------------000|

  Gtr 2
e|------------|--------------------------|--------------------------|
B|------------|----4----4-----4----4--999|----4----4-----4----4--999|
G|------------|-6--4-6--4--6--4-6--4--999|-6--4-6--4--6--4-6--4--999|
D|------------|-----------------------999|-----------------------999|
A|------------|-----------------------777|-----------------------777|
E|000455555555|--------------------------|--------------------------|

1:15  

  Gtr 1
e|--------------------------|--------------------------|
B|-0--0-0--0--0--0-0--0-----|-0--0-0--0--0--0-0--0-----|
G|-8--8-8--8--8--8-8--8-----|-8--8-8--8--8--8-8--8-----|
D|-11-9-11-9--11-9-11-9--999|-11-9-11-0--11-9-11-9--999|
A|-----------------------999|-----------------------999|
E|-----------------------777|-----------------------777|

  Gtr 2
e|--------------------------|--------------------------|
B|-5--4-5--4--5--4-5--4-----|-5--4-5--4--5--4-5--4-----|
G|-----------------------888|-----------------------888|
D|-----------------------999|-----------------------999|
A|-----------------------999|-----------------------999|
E|-----------------------777|-----------------------777|


Outro

e|--------------|
B|--------------|  This ending is really wierd
G|--------------|  So play any chord above B 
D|--------------|  Really hard and upwards
A|-9-11-12-13-15|  
E|-7-9--10-11-13|  

e|-7-9--10-11-13|
B|-7-9--10-11-12|
G|--------------|
D|--------------|
A|--------------|
E|--------------|




| /  slide up
| \  slide down
| h  hammer-on
| p  pull-off
| ~  vibrato
| +  harmonic
| x  Mute note
===============================================================================





Comments


Popular Futureheads tabs & chords
Man Ray Bass Tabs
Heartbeat Song 1 Chords
Radio Heart Chords
Robot Chords
The Beginning Of The Twist Chords
Carnival Kids Tabs
Decent Days And Nights 2 Tabs
Everythings Changing Today Tabs
Skip To The End 1 Tabs
Heartbeat Song Ukulele


Song lyrics



↑ Back to top | Tablatures and chords are parodies/interpretations of the original songs. You may use it for private study, scholarship, research or language learning purposes only
© 2014 AZChords.com Contact us | Privacy policy | DMCA | Add/correct tabs | Request tabs | Top 50 tabs