>
 >
Skip To The End 2

Skip To The End 2 Guitar Tabs

Futureheads - Skip To The End 2 chords, tabs, tablatures, lyrics

Guitar lessons | Add/correct | Request | Top 50 tabs Artists:  A B C D E F G H I J K L M N O P Q R S T U V W X Y Z 0-9

Skip To The End 2 Guitar Tabs – Futureheads

CD, Sheet music, Poster

Do you like Skip To The End 2? Share with your friends now
TabsTabs v2Tabs v3
-------------------------------------------------------------------------------
                                 SKIP TO THE END - FUTUREHEADS
-------------------------------------------------------------------------------

Not sure if this is right but it sounds good when I play it over the track so hope it’s worked…

Tuning: standard

Intro

e|-----------0-0-0---0-0-0-----------4-------4-------------------------------|
B|-----------0-0-0—--0-0-0-----------4-------4-------------------------------|
G|-----------1-1-1—--4-4-4-------4-4-4---4-4-4-------------------------------|
D|-----------2-2-2---4-4-4-------4-4-6---4-4-6-------------------------------|
A|-----2-----2-2-2---2-2-2-------2-2-6---2-2-6-------------------------------|
E|-----0-----0-0-0-------------------4-------4-------------------------------|

e|-----------0-0-0---0-0-0-----------4-------4-------------------------------|
B|-----------0-0-0—--0-0-0-----------4-------4-------------------------------|
G|-----------1-1-1—--4-4-4-------4-4-4---4-4-4-------------------------------|
D|-----------2-2-2---4-4-4-------4-4-6---4-4-6-------------------------------|
A|-----------2-2-2---2-2-2-------2-2-6---2-2-6-------------------------------|
E|-----------0-0-0-------------------4-------4-------------------------------|

e|-----------0-0-0---0-0-0-----------4-------4-------------------------------|
B|-----------0-0-0—--0-0-0-----------4-------4-------------------------------|
G|-----------1-1-1—--4-4-4-------4-4-4---4-4-4-------------------------------|
D|-----------2-2-2---4-4-4-------4-4-6---4-4-6-------------------------------|
A|-----2-----2-2-2---2-2-2-------2-2-6---2-2-6-------------------------------|
E|-----0-----0-0-0-------------------4-------4-------------------------------|

e|-----------0-0-0---0-0-0-----------4-------4-------------------------------|
B|-----------0-0-0—--0-0-0-----------4-------4-------------------------------|
G|-----------1-1-1—--4-4-4-------4-4-4---4-4-4-------------------------------|
D|-----------2-2-2---4-4-4-------4-4-6---4-4-6-------------------------------|
A|-----------2-2-2---2-2-2-------2-2-6---2-2-6-------------------------------|
E|-----------0-0-0-------------------4-------4-------------------------------|

Verse
                      
e|-----0------5------2---------5------0------5-----4---------5---------------------|
B|-----0------5------4---------5------0------5-----4---------5---------------------|
G|-----1------6------4-letring-6------1------6-----4-letring-6---------------------|
D|-----2------7------4---------7------2------7-----6---------7---------------------|
A|-----2------7------2---------7------2------7-----6---------7---------------------|
E|-----0------5----------------5------0------5-----4---------5---------------------|

e|-----------0-0-0---0-0-0-----------4-------4-------------------------------|
B|-----------0-0-0—--0-0-0-----------4-------4-------------------------------|
G|-----------1-1-1—--4-4-4-------4-4-4---4-4-4-------------------------------|
D|-----------2-2-2---4-4-4-------4-4-6---4-4-6-------------------------------|   x3
A|-----------2-2-2---2-2-2-------2-2-6---2-2-6-------------------------------|
E|-----------0-0-0-------------------4-------4-------------------------------|

e|-----------0-0-0---0-0-0-------4-4-4---4-4-4-------------------------------|
B|-----------0-0-0—--0-0-0-------4-4-4---4-4-4-------------------------------|
G|-----------1-1-1—--4-4-4-------4-4-4---4-4-4-------------------------------|
D|-----------2-2-2---4-4-4-------6-6-6---6-6-6-------------------------------|   x2
A|-----------2-2-2---2-2-2-------6-6-6---6-6-6-------------------------------|
E|-----------0-0-0---------------4-4-4---4-4-4-------------------------------|


e|-----2---------------------------------------------------------------------|
B|-----4---------------------------------------------------------------------|
G|-----4—letring-------------------------------------------------------------|
D|-----4---------------------------------------------------------------------|
A|-----2---------------------------------------------------------------------|
E|---------------------------------------------------------------------------|

Chorus

e|---4-----4-4-4---2-2-2-----0---2-------------------------------------------|
B|---4-----4-4-4---2-2-2-----0---2-------------------------------------------|
G|---4-----4-4-4---2-2-2-----1---2-------------------------------------------|
D|---6-----6-6-6---4-4-4-----2---4-------------------------------------------|   x3
A|---6-----6-6-6---4-4-4-----2---4-------------------------------------------|
E|---4-----4-4-4---2-2-2-----0---2-------------------------------------------|

e|---4-----4-4-4---2-2-2-------2---------------------------------------------|
B|---4-----4-4-4---2-2-2-------4---------------------------------------------|
G|---4-----4-4-4---2-2-2-------4---------------------------------------------|
D|---6-----6-6-6---4-4-4-------4---------------------------------------------|  
A|---6-----6-6-6---4-4-4-------2---------------------------------------------|
E|---4-----4-4-4---2-2-2-----------------------------------------------------|

Bridge thing

e|--------0-0-0-----------2-2---0-------0-0-0-0-0-0-0-0-0--------------------|
B|--------0-0-0-----------4-4---0-------0-0-0-0-0-0-0-0-0--------------------|
G|--------1-1-1---6-6-6---4-4---1-------1-1-1-1-1-1-1-1-1--------------------|
D|--------2-2-2---6-6-6---4-4---2-------2-2-2-2-2-2-2-2-2--------------------|
A|---2----2-2-2---4-4-4---2-2---2-------2-2-2-2-2-2-2-2-2--------------------|
E|---0----0-0-0-----------------0-------0-0-0-0-0-0-0-0-0--------------------|

e|--------0-0-0-----------2-2-2---------2-2-2-2-2-2-2-2-0--------------------|
B|--------0-0-0-----------4-4-4---------4-4-4-4-4-4-4-4-0--------------------|
G|--------1-1-1---6-6-6---4-4-4---------4-4-4-4-4-4-4-4-1--------------------|
D|--------2-2-2---6-6-6---4-4-4---------4-4-4-4-4-4-4-4-2--------------------|
A|--------2-2-2---4-4-4---2-2-2---------2-2-2-2-2-2-2-2-2--------------------|
E|--------0-0-0-----------------------------------------0--------------------|

e|--------0-0-0-----------2-2---0-------0-0-0-0-0-0-0-0-0--------------------|
B|--------0-0-0-----------4-4---0-------0-0-0-0-0-0-0-0-0--------------------|
G|--------1-1-1---6-6-6---4-4---1-------1-1-1-1-1-1-1-1-1--------------------|
D|--------2-2-2---6-6-6---4-4---2-------2-2-2-2-2-2-2-2-2--------------------|
A|--------2-2-2---4-4-4---2-2---2-------2-2-2-2-2-2-2-2-2--------------------|
E|--------0-0-0-----------------0-------0-0-0-0-0-0-0-0-0--------------------|

e|--------0-0-0-----------2-2-2----------------------------------------------|
B|--------0-0-0-----------4-4-4----------------------------------------------|
G|--------1-1-1---6-6-6---4-4-4----------------------------------------------|
D|--------2-2-2---6-6-6---4-4-4----------------------------------------------|
A|--------2-2-2---4-4-4---2-2-2----------------------------------------------|
E|--------0-0-0--------------------------------------------------------------|

Verse

e|-----0------5------2---------5------0------5-----4---------5---------------------|
B|-----0------5------4---------5------0------5-----4---------5---------------------|
G|-----1------6------4-letring-6------1------6-----4-letring-6---------------------|
D|-----2------7------4---------7------2------7-----6---------7---------------------|
A|-----2------7------2---------7------2------7-----6---------7---------------------|
E|-----0------5----------------5------0------5-----4---------5---------------------|

e|-----------0-0-0---0-0-0-----------4-------4-------------------------------|
B|-----------0-0-0—--0-0-0-----------4-------4-------------------------------|
G|-----------1-1-1—--4-4-4-------4-4-4---4-4-4-------------------------------|
D|-----------2-2-2---4-4-4-------4-4-6---4-4-6-------------------------------|   x3
A|---2-------2-2-2---2-2-2-------2-2-6---2-2-6-------------------------------|
E|---0-------0-0-0-------------------4-------4-------------------------------|

e|-----------0-0-0---0-0-0-------4-4-4---4-4-4-------------------------------|
B|-----------0-0-0—--0-0-0-------4-4-4---4-4-4-------------------------------|
G|-----------1-1-1—--4-4-4-------4-4-4---4-4-4-------------------------------|
D|-----------2-2-2---4-4-4-------6-6-6---6-6-6-------------------------------|   x2
A|-----------2-2-2---2-2-2-------6-6-6---6-6-6-------------------------------|
E|-----------0-0-0---------------4-4-4---4-4-4-------------------------------|

Chorus

e|---4-----4-4-4---2-2-2-----0---2-------------------------------------------|
B|---4-----4-4-4---2-2-2-----0---2-------------------------------------------|
G|---4-----4-4-4---2-2-2-----1---2-------------------------------------------|
D|---6-----6-6-6---4-4-4-----2---4-------------------------------------------|   x3
A|---6-----6-6-6---4-4-4-----2---4-------------------------------------------|
E|---4-----4-4-4---2-2-2-----0---2-------------------------------------------|

e|---4-----4-4-4---2-2-2---------2-2-2---------------------------------------|
B|---4-----4-4-4---2-2-2---------4-4-4---------------------------------------|
G|---4-----4-4-4---2-2-2---------4-4-4---------------------------------------|
D|---6-----6-6-6---4-4-4---------4-4-4---------------------------------------|  
A|---6-----6-6-6---4-4-4---------2-2-2---------------------------------------|
E|---4-----4-4-4---2-2-2-------------------------------------------------|


e|---4-----4-4-4---2-2-2-----0---2-------------------------------------------|
B|---4-----4-4-4---2-2-2-----0---2-------------------------------------------|
G|---4-----4-4-4---2-2-2-----1---2-------------------------------------------|
D|---6-----6-6-6---4-4-4-----2---4-------------------------------------------|   x3
A|---6-----6-6-6---4-4-4-----2---4-------------------------------------------|
E|---4-----4-4-4---2-2-2-----0---2-------------------------------------------|

e|---4-----4-4-4---2-2-2-------2---------------------------------------------|
B|---4-----4-4-4---2-2-2-------4---------------------------------------------|
G|---4-----4-4-4---2-2-2-------4---------------------------------------------|
D|---6-----6-6-6---4-4-4-------4---------------------------------------------|  
A|---6-----6-6-6---4-4-4-------2---------------------------------------------|
E|---4-----4-4-4---2-2-2-----------------------------------------------------|

Outro

e|-----------0-0-0---0-0-0-----------4-------4-------------------------------|
B|-----------0-0-0—--0-0-0-----------4-------4-------------------------------|
G|-----------1-1-1—--4-4-4-------4-4-4---4-4-4-------------------------------|
D|-----------2-2-2---4-4-4-------4-4-6---4-4-6-------------------------------|
A|-----2-----2-2-2---2-2-2-------2-2-6---2-2-6-------------------------------|
E|-----0-----0-0-0-------------------4-------4-------------------------------|

e|-----------0-0-0---0-0-0-----------4-------4-------------------------------|
B|-----------0-0-0—--0-0-0-----------4-------4-------------------------------|
G|-----------1-1-1—--4-4-4-------4-4-4---4-4-4-------------------------------|
D|-----------2-2-2---4-4-4-------4-4-6---4-4-6-------------------------------|
A|-----------2-2-2---2-2-2-------2-2-6---2-2-6-------------------------------|
E|-----------0-0-0-------------------4-------4-------------------------------|

e|-----------0-0-0---0-0-0-----------4-------4-------------------------------|
B|-----------0-0-0—--0-0-0-----------4-------4-------------------------------|
G|-----------1-1-1—--4-4-4-------4-4-4---4-4-4-------------------------------|
D|-----------2-2-2---4-4-4-------4-4-6---4-4-6-------------------------------|
A|-----2-----2-2-2---2-2-2-------2-2-6---2-2-6-------------------------------|
E|-----0-----0-0-0-------------------4-------4-------------------------------|

e|-----------0-0-0---0-0-0-----------4-------4-------------------------------|
B|-----------0-0-0—--0-0-0-----------4-------4-------------------------------|
G|-----------1-1-1—--4-4-4-------4-4-4---4-4-4-------------------------------|
D|-----------2-2-2---4-4-4-------4-4-6---4-4-6-------------------------------|
A|-----------2-2-2---2-2-2-------2-2-6---2-2-6--------2----------------------|
E|-----------0-0-0-------------------4-------4--------0----------------------|



| /  slide up
| \  slide down
| h  hammer-on
| p  pull-off
| ~  vibrato
| +  harmonic
| x  Mute note
===============================================================================





Comments


Popular Futureheads tabs & chords
Le Garage Bass Tabs
Man Ray Bass Tabs
Hard To Bear Chords
Heartbeat Song 1 Chords
Radio Heart Chords
Struck Dumb Chords
The Beginning Of The Twist Intro Chords
Piece Of Crap Intro Tabs
Struck Dumb 1 Tabs
The Begining Of The Twist Tabs


Song lyrics



↑ Back to top | Tablatures and chords are parodies/interpretations of the original songs. You may use it for private study, scholarship, research or language learning purposes only
© 2014 AZChords.com Contact us | Privacy policy | DMCA | Add/correct tabs | Request tabs | Top 50 tabs