» » »

Sale Of The Century Bass tabs (ver.1)

Artists:  A B C D E F G H I J K L M N O P Q R S T U V W X Y Z # 

Sale Of The Century Bass tabs (ver.1)

Futureheads
Rating:
0/5 (0 votes)

Tabs too difficult? Try these video lessons and learn fast.
                ----------------------------------------------------------------------------
			     Sale of the Century- The Futureheads
----------------------------------------------------------------------------



Tuning: Standard

Verse
G|------------------|
D|------------------|
A|------------------|
E|-2-2-2/5-0--------|
Theres a slight variation when its mainly bass, cant quite work it out,
but i think you play the open twice.

Chorus
G|-------------------------------------------------------------------------|
D|-------------------------------------------------------------------------|
A|-4-4-4-4-4-4-4-4---------------------------------------------------------|
E|-----------------5-5-5-5-5-5-5-5-0-0-0-0-0-0-0-0-0-0-0-0-0-0-0-0---------|

Bridge
G|---------------------------------------------------------------------------|
D|---------------------------------------------------------------------------|
A|---------------------------------------------------------------------------|
E|-5-5-5-5-5-5-5-5-4-4-4-4-4-4-4-4-3-3-3-3-3-3-3-3-2-2-2-2-2-2-2-------------|

listen to the song for timing/amount of each bar etc. Thanks to JP for heling with the tab.
            
Tabs too difficult? Try these video lessons and learn fast.




comments powered by Disqus
↑ Back to top | Tablatures and chords are parodies/interpretations of the original songs. You may use it for private study, scholarship, research or language learning purposes only