>
 >
Remote Control

Remote Control Bass Tabs

Futureheads - Remote Control chords, tabs, tablatures, lyrics

Guitar lessons | Add/correct | Request | Top 50 tabs Artists:  A B C D E F G H I J K L M N O P Q R S T U V W X Y Z 0-9

Remote Control Bass Tabs – Futureheads

CD, Sheet music, Poster

Do you like Remote Control? Share with your friends now
Bass Tabs
-------------------------------------------------------------------------------
			     Remote Control - The Futureheads
-------------------------------------------------------------------------------


Tuning: Standard

INTRO
G|---------------------------------------------|
D|---------------------------------------------|
A|-55-5-5--55-5-5--5-5--5-5--5-55-5-5--55-5-5--|
E|---------------------------------------------|

VERSE 1

G|----------------------------------------------|
D|----------------------------THREE-------------|
A|-----------7-9--9-7-9--9-9--TIMES--555555555--|
E|-33-3-3--3------------------OVER--------------|

you can play those higher parts on the D string as 2-4 correspondingly if the move is 
hard/unnecessary

VERSE 2
G|---------------------------------------------------------------|
D|------------------------------------------------------TWO------|
A|---10-9-1010-5----10-9-1010-5--55-5-2-77-7-5-7/14-----TIMES----|
E|-3-------------3--------------------------------------THROUGH--|

G|---------------------------------------------------------------|
D|---------------------------------------------------------------|
A|---10-9-1010-5----10-9-1010-5--55-5--7-7-7--5-5-55555----------|
E|-3-------------3-----------------------------------------------|

VERSE 3
G|--------------------------------------------------------------------------|
D|-----------------------5-----5--------------------------------------------|
A|-------------------2-5---2-5-------33333333333333333333333333333333-2222--|
E|-3333333333333333---------------3~----------------------------------------|

OUTRO
G|----------555-4-----------555-4--------------555-4--------------555-4-----|
D|--------------------------------------------------------------------------|
A|-55-5-55-5------55-5-55-5--------55555555555--------55555555555-----------|
E|--------------------------------------------------------------------------|

G|---------------------------------------------------------------------------------------------|
D|---------------------------------------------------------------------------------------------|
A|-55555555555555555555555555555555555555555555555555555555555555555555555555555555555555555---|
E|------------------------------------------------------------------------------------------0--|

| /  slide up
| \  slide down
| h  hammer-on
| p  pull-off
| ~  vibrato
| +  harmonic
| x  Mute note
===============================================================================





Comments


Popular Futureheads tabs & chords
Robot Chords
Decent Days And Nights 2 Tabs
Robot Tabs
Skip To The End 1 Tabs
Skip To The End Intro Tabs
Struck Dumb Tabs
Area Ukulele
Fallout Ukulele
Radio Heart Ukulele
Robot Ukulele


Song lyrics



↑ Back to top | Tablatures and chords are parodies/interpretations of the original songs. You may use it for private study, scholarship, research or language learning purposes only
© 2014 AZChords.com Contact us | Privacy policy | DMCA | Add/correct tabs | Request tabs | Top 50 tabs