>
 >
Man Ray

Man Ray Guitar Tabs

Futureheads - Man Ray chords, tabs, tablatures, lyrics

Guitar lessons | Add/correct | Request | Top 50 tabs Artists:  A B C D E F G H I J K L M N O P Q R S T U V W X Y Z 0-9

Man Ray Guitar Tabs – Futureheads

CD, Sheet music, Poster

Do you like Man Ray? Share with your friends now
Bass TabsTabs
-------------------------------------------------------------------------------
-------------------------------------------------------------------------------

Tuning: Standard 

Like all my other Fuitreheads this song has Two guitars in it.  

Intro/verse 0:00

   Gtr 1
e|-----------------------------|---------------------------------------------|
B|-----------------------------|---------------------------------------------|
G|-----------------------------|---------------------------------------------|
D|-----------------------------|---------------------------------------------|
A|-----------------------------|---------------------------------------------|
E|-6-6-6--6-6-6-6-6-6-6--6-6-6-|-10-10-10--10-10-10-10-10-10-10--10-10-10----|
 
  Gtr 2
e|-----------------------------|---------------------------------------------|
B|-----------------------------|---------------------------------------------|
G|-----------------------------|---------------------------------------------|
D|-----------------------------|-10-10-10--10-10-10-10-10-10-10--10-10-10----|
A|-----------------------------|---------------------------------------------|
E|-----------------------------|---------------------------------------------|

  Repeat above 4 times till 0:21

 Break 

  Gtr 1 
e|----|---------|
B|----|---------|
G|----|-silence-|
D|-8--|-with ---|
A|-8--|-harmony-|
E|-6--|-vocals--|


  Gtr 2 
e|----|---------|
B|----|---------|
G|----|-silence-|
D|----|-with ---|
A|----|-harmony-|
E|----|-vocals--|



Break 0:33

  Gtr 1
e|-------------------|---------------------|-8-8-6--8-8-6-|-8-8-6-8-8-8-6|
B|-------------------|---------------------|--------------|--------------|
G|-------------------|---------------------|--------------|--------------|
D|-10-10-8---10-10-8-|-10-10-8-10-10-10-8--|--------------|--------------|
A|-------------------|---------------------|--------------|--------------|
E|-------------------|---------------------|--------------|--------------|

  Gtr 2
e|-------------------|---------------------|--------------|--------------|
B|-------------------|---------------------|--------------|--------------|
G|-------------------|---------------------|-7-7-7--7-7-7-|-7-7-7-7-7-7-7|
D|-8--8--8---8--8--8-|-8--8--8--8--8--8--8-|-7-7-7--7-7-7-|-7-7-7-7-7-7-7|
A|-8--8--8---8--8--8-|-8--8--8--8--8--8--8-|-5-5-5--5-5-5-|-5-5-5-5-5-5-5|
E|-6--6--6---6--6--6-|-6--6--6--6--6--6--6-|--------------|--------------|

Repeat Break at 0:33 then repeat the last two bars of it

Verse 0:47

e|-----------------|-----------------|-----------------|----------------|
B|-----------------|-----------------|----10~----------|-10~------------|
G|------------7-7-7|-----7-7-7-7-----|----10~----------|-10~------------|
D|-----------------|-----------------|----10~----------|-10~------------|
A|-----------------|-----------------|-----------------|----------------|
E|-----------------|-----------------|-----------------|----------------|
                    "where did your...
e|-----------------|-----------------|-----------------|----------------|
B|-----------------|-----------------|-----------------|----------------|
G|-----------------|-----------------|-7-7-7-7-7-7-7-7-|-7-7-7-7-7-7-7-7|
D|-8-8-8-8-8-8-8-8-|-8-8-8-8-8-8-8-8-|-7-7-7-7-7-7-7-7-|-7-7-7-7-7-7-7-7|
A|-8-8-8-8-8-8-8-8-|-8-8-8-8-8-8-8-8-|-5-5-5-5-5-5-5-5-|-5-5-5-5-5-5-5-5|
E|-6-6-6-6-6-6-6-6-|-6-6-6-6-6-6-6-6-|-----------------|----------------|

Reapeat Above 7 times so you play it 8 times overall.


e|-6~-----|----------|--6--|------|---------|
B|-6~-----|----------|--6--|------|---------|
G|-7~-----|-5--------|--7--|--5---|-silence-|
D|-8~-----|----5-3---|--8--|------|---------|
A|-8~-----|-5------3-|--8--|--5---|---------|
E|-6~-----|----------|--6--|------|---------|

e|-6~-----|----------|--6--|------|---------|
B|-6~-----|----------|--6--|------|---------|
G|-7~-----|-10~------|--7--|--10--|-silence-|
D|-8~-----|-10~------|--8--|--10--|---------|
A|-8~-----|-12~------|--8--|--12--|---------|
E|-6~-----|-10~------|--6--|--10--|---------|

Break 2 1:32

  Gtr 1
e|-------------------|---------------------|-8-8-6--8-8-6-|-8-8-6-8-8-8-6|
B|-------------------|---------------------|--------------|--------------|
G|-------------------|---------------------|--------------|--------------|
D|-10-10-8---10-10-8-|-10-10-8-10-10-10-8--|--------------|--------------|
A|-------------------|---------------------|--------------|--------------|
E|-------------------|---------------------|--------------|--------------|

  Gtr 2
e|-------------------|---------------------|--------------|--------------|
B|-------------------|---------------------|--------------|--------------|
G|-------------------|---------------------|-7-7-7--7-7-7-|-7-7-7-7-7-7-7|
D|-8--8--8---8--8--8-|-8--8--8--8--8--8--8-|-7-7-7--7-7-7-|-7-7-7-7-7-7-7|
A|-8--8--8---8--8--8-|-8--8--8--8--8--8--8-|-5-5-5--5-5-5-|-5-5-5-5-5-5-5|
E|-6--6--6---6--6--6-|-6--6--6--6--6--6--6-|--------------|--------------|

repeat Break 2 at 1:32 then play

  Gtr 1
e|-----------------|-------------------|-----------------|-------------------|
B|-----------------|-------------------|-----------------|-------------------|
G|-----------------|-------------------|7--7--7---7--7--7|7--7--7--7--7--7--7|
D|8--8--8---8--8--8|8--8--8--8--8--8--8|7--7--7---7--7--7|7--7--7--7--7--7--7|
A|8--8--8---8--8--8|8--8--8--8--8--8--8|5--5--5---5--5--5|5--5--5--5--5--5--5|
E|6--6--6---6--6--6|6--6--6--6--6--6--6|-----------------|-------------------|
 
  Gtr 2
e|-----------------|-------------------|-----------------|-------------------|
B|-----------------|-------------------|-----------------|-------------------|
G|-----------------|-------------------|-----------------|-------------------|
D|8--8--8---8--8--8|8--8--8--8--8--8--8|-----------------|-------------------|
A|8--8--8---8--8--8|8--8--8--8--8--8--8|10-10-----10-10--|10-10-----10-10----|
E|6--6--6---6--6--6|6--6--6--6--6--6--6|-----------------|-------------------|


Ending

  Gtr 1
e|-----------------|-------------------|-----------------|-------------------|
B|-----------------|-------------------|-----------------|-------------------|
G|-----------------|-------------------|7--7--7---7--7--7|7--7--7--7--7--7--7|
D|8--8--8---8--8--8|8--8--8--8--8--8--8|7--7--7---7--7--7|7--7--7--7--7--7--7|
A|8--8--8---8--8--8|8--8--8--8--8--8--8|5--5--5---5--5--5|5--5--5--5--5--5--5|
E|6--6--6---6--6--6|6--6--6--6--6--6--6|-----------------|-------------------|

  Gtr 2
e|-----------------|-------------------|-----------------|-------------------|
B|-----------------|-------------------|-----------------|-------------------|
G|-----------------|-------------------|-----------------|-------------------|
D|10-10-8--10-10-8-|10-10-8-10-10-10--8|10-10-8--10-10-8-|10-10-8-10-10-10--8|
A|-----------------|-------------------|-----------------|-------------------|
E|-----------------|-------------------|-----------------|-------------------|







| /  slide up
| \  slide down
| h  hammer-on
| p  pull-off
| ~  vibrato
| +  harmonic
| x  Mute note
===============================================================================





Comments


Popular Futureheads tabs & chords
Fallout Chords
First Day Chords
Hounds Of Love 1 Chords
I Can Do That Chords
Robot Chords
Danger Of The Water Tabs
Decent Days And Nights 2 Tabs
Heartbeat Song Tabs
First Day Ukulele
Radio Heart Ukulele


Song lyrics



↑ Back to top | Tablatures and chords are parodies/interpretations of the original songs. You may use it for private study, scholarship, research or language learning purposes only
© 2014 AZChords.com Contact us | Privacy policy | DMCA | Add/correct tabs | Request tabs | Top 50 tabs