» » »

Le Garage Bass tabs (ver.1)

Artists:  A B C D E F G H I J K L M N O P Q R S T U V W X Y Z # 

Le Garage Bass tabs (ver.1)

Futureheads
Rating:
0/5 (0 votes)

Hard to play? Try these video lessons and learn fast.
                Intro:
G-----------|
D-9----7----|
A---7----9--|
E-----------|

G--------------|
D-9-----7------|
A---7-7---9-9--|
E--------------|

Verse:
G-------------|
D-------------|
A-------------|
E-5-3--55-33--|


Pre-Chorus:
G----------|
D-7---5----|
A---5---5--|
E----------|

G--------------|
D-7---5-5-5-5--|
A---5----------|
E--------------|

Post-Chorus:
G---------------------|
D-7-5--7-5--7-5--7-5--|
A---------------------|
E---------------------|

Outro:

G-----------------|
D-----------------|
A-5-5-5-7--7-7-7--|
E-----------------|
            
Hard to play? Try these video lessons and learn fast. | Correct




comments powered by Disqus
↑ Back to top | Tablatures and chords are parodies/interpretations of the original songs. You may use it for private study, scholarship, research or language learning purposes only