» » »

Futureheads, Heartbeat Song Bass tabs (ver.1)

Artists:  A B C D E F G H I J K L M N O P Q R S T U V W X Y Z # 

Heartbeat Song Bass tabs (ver.1)

Futureheads Tabs
 Rating:
4/5 (4 votes)
Heartbeat Song lessons Tabs too difficult? Try these video lessons and learn fast
1
                I HAVE BASED THIS AROUND THE GUITAR TAB (THIS IS MY FIRST TAB EVER BY THE WAY :) ) 

INTRO/VERSES
G|-------|-------|--------|--------|
D|-------|-------|--------|--------|
A|-2-2-2-|-------|--------|--------|
E|-------|-2-2-2-|-4-4-4--|-0-0-0--|


CHORUS 1

G|-----------------|-----------------|-----------------|-----------------|
D|-----------------|-----------------|-----------------|-----------------|
A|-2-2-2-2-2-2-2-2-|-----------------|-2-2-2-2-2-2-2-2-|-----------------|
E|-----------------|-0-0-0-0-2-2-2-2-|-----------------|-0-0-0-0-2-2-2-2-|


   
G|-----------------|-----------------|-----------------|-----------------|
D|-----------------|-----------------|-----------------|-----------------|
A|-----------------|-----------------|-2-2-2-2---------|-2-2-2-2-2-2-2-2-|
E|-4-4-4-4-4-4-4-4-|-0-0-0-0-0-0-0-0-|---------2-2-2-2-|-----------------|


CHORUS 2


G|-----------------|-----------------|-----------------|-----------------|
D|-----------------|-----------------|-----------------|-----------------|
A|-2-2-2-2-2-2-2-2-|-----------------|-2-2-2-2-2-2-2-2-|-----------------|
E|-----------------|-0-0-0-0-2-2-2-2-|-----------------|-0-0-0-0-2-2-2-2-|


G|-----------------|-----------------|-----------------|-----------------|
D|-----------------|-----------------|-----------------|-----------------|
A|-----------------|-----------------|-2-2-2-2---------|-2-2-2-2-2-2-2-2-|
E|-4-4-4-4-4-4-4-4-|-0-0-0-0-0-0-0-0-|---------2-2-2-2-|-----------------|

G|-----------------|-----------------|-----------------|-----------------|
D|-----------------|-----------------|-----------------|-----------------|
A|-----------------|-2-2-2-2-2-2-2-2-|-----------------|-----------------|
E|-0-0-0-0-2-2-2-2-|-----------------|-0-0-0-0-2-2-2-2-|-4-4-4-4-4-4-4-4-|

G|-----------------|-----------------|-----------------|-----------------|
D|-----------------|-----------------|-----------------|-----------------|
A|-----------------|-2-2-2-2---------|-2-2-2-2-2-2-2-2-|-2-2-2-2---------|
E|-0-0-0-0-0-0-0-0-|---------2-2-2-2-|-----------------|---------2-2-2-2-|

G|-----------------|
D|-----------------|
A|-----------------|
E|-0---------------|


BRIDGE 

G|-----------------|-----------------|-----------------|-----------------|
D|-----------------|-----------------|-----------------|-----------------|
A|-2-2-2-2-2-2-2-2-|-4-4-4-4-4-4-4-4-|-6-6-6-6-6-6-6-6-|-7-7-7-7-7-7-7-7-|
E|-----------------|-----------------|-----------------|-----------------|

G|-----------------|-------------|
D|-----------------|-------------|
A|--7-6-5-4-3-2-1--|-------------|
E|-----------------|-5-4-3-3-32--|



ENDING

G|-----------------|-----------------|-----------------|-----------------|
D|-----------------|-----------------|-----------------|-----------------|
A|-2-2-2-2---------|-2-2-2-2-2-2-2-2-|-2-2-2-2---------|-2-2-2-2-2-2-2-2-|
E|---------2-2-2-2-|-----------------|---------2-2-2-2-|-----------------|
            
Submit corrections

comments powered by Disqus
↑ Back to top | Futureheads Bass for Heartbeat Song. Lyrics for acoustic guitar and electric guitar. 1 Tablatures and chords are parodies/interpretations of the original songs. You may use it for private study, scholarship, research or language learning purposes only