» » »

Everythings Changing Today Tabs (ver.1)

Artists:  A B C D E F G H I J K L M N O P Q R S T U V W X Y Z # 

Everythings Changing Today Tabs (ver.1)

Futureheads
Rating:
4/5 (1 vote)

Hard to play? Try these video lessons and learn fast.
                
Tuning:   Standard


INTRO

    A                 C#m

E|--5555555555555555--4~----|
B|--5555555555555555--5~----|
G|--6666666666666666--6~----|
D|--7777777777777777--6~----|    x 2
A|--7777777777777777--4~----|
E|--5555555555555555--------|


VERSE


    A  D  A  D  A D  C#m  E

E|--5--5--5--5--5-5--4~---77----|
B|--5--7--5--7--5-7--5~---99----|
G|--6--7--6--7--6-7--6~---99----|
D|--7--7--7--7--7-7--6~---99----|    x 3
A|--7--5--7--5--7-5--4~---77----|
E|--5-----5-----5---------------|


    A  D  A  D  A D  C#m  E

E|--5--5--5--5--5-5----|
B|--5--7--5--7--5-7----|
G|--6--7--6--7--6-7----|
D|--7--7--7--7--7-7----|
A|--7--5--7--5--7-5----|
E|--5-----5-----5------|

PRE CHORUS


E|--------------------------------------------|
B|--------------------------------------------|
G|--------------------------------------------|
D|--------------------------------------------|
A|--------------4--------------------4--------|
E|--2-2--2-2-2-----4-4----2-2--2-2-2---4-4----|


    F#m

E|--2-2~------|
B|--2-2~------|
G|--2-2~------|
D|--4-4~------|
A|--4-4~------|
E|--2-2~------|


CHORUS


    A    D    A        D   C#m

E|--555--555--5-55555--55--4444444444444444----|
B|--555--777--5-55555--77--5555555555555555----|
G|--666--777--6-66666--77--6666666666666666----|
D|--777--777--7-77777--77--6666666666666666----|    x 2
A|--777--555--7-77777--55--4444444444444444----|
E|--555-------5-55555--------------------------|
                .....
                 pm


    A    D    A        D   C#m  E    B           C#m  E    B

E|--555--555--5-55555--55--444-------22222222----444-------22222222----|
B|--555--777--5-55555--77--555-------44444444----555-------44444444----|
G|--666--777--6-66666--77--666-------44444444----666-------44444444----|
D|--777--777--7-77777--77--666--222--44444444----666--222--44444444----|
A|--777--555--7-77777--55--444--222--22222222----444--222--22222222----|
E|--555-------5-55555-----------000-------------------000--------------|
                .....
                 pm


POST CHORUS


    A    D    A  C#m

E|--555--555--5--44444----|
B|--555--777--5--55555----|
G|--666--777--6--66666----|
D|--777--777--7--66666----|
A|--777--555--7--44444----|
E|--555-------5-----------|

VERSE 2


    A  D  A  D  A D  C#m  E

E|--5--5--5--5--5-5--4~---77----|
B|--5--7--5--7--5-7--5~---99----|
G|--6--7--6--7--6-7--6~---99----|
D|--7--7--7--7--7-7--6~---99----|    x 3
A|--7--5--7--5--7-5--4~---77----|
E|--5-----5-----5---------------|


    A  D  A  D  A D  C#m  E

E|--5--5--5--5--5-5----|
B|--5--7--5--7--5-7----|
G|--6--7--6--7--6-7----|
D|--7--7--7--7--7-7----|
A|--7--5--7--5--7-5----|
E|--5-----5-----5------|

PRE CHORUS


E|--------------------------------------------|
B|--------------------------------------------|
G|--------------------------------------------|
D|--------------------------------------------|
A|--------------4--------------------4--------|
E|--2-2--2-2-2-----4-4----2-2--2-2-2---4-4----|


    F#m

E|--2-2~------|
B|--2-2~------|
G|--2-2~------|
D|--4-4~------|
A|--4-4~------|
E|--2-2~------|


CHORUS


    A    D    A        D   C#m

E|--555--555--5-55555--55--4444444444444444----|
B|--555--777--5-55555--77--5555555555555555----|
G|--666--777--6-66666--77--6666666666666666----|
D|--777--777--7-77777--77--6666666666666666----|    x 2
A|--777--555--7-77777--55--4444444444444444----|
E|--555-------5-55555--------------------------|
                .....
                 pm


    A    D    A        D   C#m  E    B           C#m  E    B

E|--555--555--5-55555--55--444-------22222222----444-------22222222----|
B|--555--777--5-55555--77--555-------44444444----555-------44444444----|
G|--666--777--6-66666--77--666-------44444444----666-------44444444----|
D|--777--777--7-77777--77--666--222--44444444----666--222--44444444----|
A|--777--555--7-77777--55--444--222--22222222----444--222--22222222----|
E|--555-------5-55555-----------000-------------------000--------------|
                .....
                 pm

POST CHORUS


    A    D    A  C#m

E|--555--555--5--44444----|
B|--555--777--5--55555----|
G|--666--777--6--66666----|
D|--777--777--7--66666----|
A|--777--555--7--44444----|
E|--555-------5-----------|

BREAK


E|------------------------------------------------|
B|------------------------------------------------|
G|------------------------------------------------|
D|------------------------------------------------|
A|--55555555--------------------77--55--44--22----|
E|------------5555555555555555--------------------|


    F#m  C#m  F#m  C#m  F#m

E|--2----4----2----4------22222222----|
B|--2----5----2----5------22222222----|
G|--2----6----2----6------22222222----|
D|--4----6----4----6------44444444----|
A|--4----4----4----4------44444444----|
E|--2---------2-----------22222222----|

CHORUS


    A    D    A        D   C#m

E|--555--555--5-55555--55--4444444444444444----|
B|--555--777--5-55555--77--5555555555555555----|
G|--666--777--6-66666--77--6666666666666666----|
D|--777--777--7-77777--77--6666666666666666----|    x 2
A|--777--555--7-77777--55--4444444444444444----|
E|--555-------5-55555--------------------------|
                .....
                 pm


    A    D    A        D   C#m  E    B           C#m  E    B

E|--555--555--5-55555--55--444-------22222222----444-------22222222----|
B|--555--777--5-55555--77--555-------44444444----555-------44444444----|
G|--666--777--6-66666--77--666-------44444444----666-------44444444----|
D|--777--777--7-77777--77--666--222--44444444----666--222--44444444----|
A|--777--555--7-77777--55--444--222--22222222----444--222--22222222----|
E|--555-------5-55555-----------000-------------------000--------------|
                .....
                 pm

POST CHORUS


    A    D    A  C#m

E|--555--555--5--44444----|
B|--555--777--5--55555----|
G|--666--777--6--66666----|
D|--777--777--7--66666----|
A|--777--555--7--44444----|
E|--555-------5-----------|


    A

E|--5~----|
B|--5~----|
G|--6~----|
D|--7~----|
A|--7~----|
E|--5~----|

Thanks, enjoy
            
Hard to play? Try these video lessons and learn fast. | Correct




comments powered by Disqus
↑ Back to top | Tablatures and chords are parodies/interpretations of the original songs. You may use it for private study, scholarship, research or language learning purposes only