» » »

Carnival Kids Tabs (ver.1)

Artists:  A B C D E F G H I J K L M N O P Q R S T U V W X Y Z # 

Carnival Kids Tabs (ver.1)

Futureheads
Rating:
3/5 (2 votes)

Tabs too difficult? Try these video lessons and learn fast.
                The Futureheads - Carnival Kids



In another tab someone requested a tab of this song. So I registered here to post it.
I have it up also on mxtabs under my other user name. Anyway, this is mainly chord


Intro


E|--------------------------|
B|--------------------------|
G|--66666666----44444444----|
D|--77777777----55555555----|   X 2
A|--77777777----55555555----|
E|--55555555----33333333----|


Verse


E|-------------------------------------|
B|-------------------------------------|
G|--6666666666666666----4-4-4-4-444----|
D|--7777777777777777----5-5-5-5-555----|
A|--7777777777777777----5-5-5-5-555----|
E|--5555555555555555----3-3-3-3-333----|


E|---------------------------------------------|
B|---------------------------------------------|
G|--6666666666666666----44444---44444----------|
D|--7777777777777777----55555---55555-----2~---|
A|--7777777777777777----55555---55555-----2~---|
E|--5555555555555555----33333---33333-----0~---|
                       [ gonna lay you down...]


E|-------------------------|
B|-------------------------|
G|--44444---44444----------|
D|--55555---55555-----2~---|
A|--55555---55555-----2~---|
E|--33333---33333-----0~---|


Chorus


E|------------------------------------------------------------|
B|--55555555--------------------------------------------------|
G|--55555555----44444444----66666666----444444--------4--7----|
D|--55555555----55555555----77777777----555555--5--7--4--7----|
A|--33333333----55555555----77777777----555555--5--7--2--5----|
E|--------------33333333----55555555----333333--3--5----------|


E|--------------------------------------------------|
B|--55555555----------------------------------------|
G|--55555555----44444444----66666666----44444444----|
D|--55555555----55555555----77777777----55555555----|
A|--33333333----55555555----77777777----55555555----|
E|--------------33333333----55555555----33333333----|


Post Chorus

E|--------------------------------------|
B|--------------------------------------|
G|--99999999----------------99999999----|
D|--99999999----55555555----99999999----|
A|--77777777----55555555----77777777----|
E|--------------33333333----------------|

Repeat VERSE

Repeat CHORUS


Post Chorus 2


E|----------------------|
B|----------------------|
G|--9999999999999999----|
D|--9999999999999999----|
A|--7777777777777777----|
E|----------------------|


BRIDGE


E|------------------------------------|
B|------------------------------------|
G|--9xx9xx9xx9--xx--------------------|
D|--9xx9xx9xx9--xx--7xx7xx7xx7--xx----|   X 3
A|--7xx7xx7xx7--xx--7xx7xx7xx7--xx----|
E|------------------5xx5xx5xx5--xx----|


E|------------------------------------|
B|------------------------------------|
G|--9xx9xx9xx9--xx------------9--9----|
D|--9xx9xx9xx9--xx--7~~-------9--9----|
A|--7xx7xx7xx7--xx--7~~-------7--7----|
E|------------------5~~---------------|


E|--------------------------|
B|--------------------------|
G|--------------------------|
D|--22222222----77777777----|   X 3
A|--22222222----77777777----|
E|--00000000----55555555----|


E|----------------------------------------------|
B|----------------------------------------------|
G|----------------------------------------------|
D|--22222222----7777----9999-------7--6--2~~----|
A|--22222222----7777----9999-------7--6--2~~----|
E|--00000000----5555----7777-------5--4--0~~----|

Thats All !!!
            
Tabs too difficult? Try these video lessons and learn fast.




comments powered by Disqus
↑ Back to top | Tablatures and chords are parodies/interpretations of the original songs. You may use it for private study, scholarship, research or language learning purposes only