» » »

Broke Up The Time Tabs (ver.1)

Artists:  A B C D E F G H I J K L M N O P Q R S T U V W X Y Z # 

Broke Up The Time Tabs (ver.1)

Futureheads
Rating:
5/5 (1 vote)

Hard to play? Try these video lessons and learn fast.
                

Brilliant song from the amazing new album by one of my favourite bands.


Intro

|------|
|------|
|-3333-|
|-3333-|
|-1111-|
|------|

Not really sure here if it's power chords or up an octave but you I'll post a couple of 
to play


|------------------|      |----------------------------|
|------------------|      |----------------------------|
|------------------|      |----------------------------|
|------------------|      |---------10-101010-121210---|
|-------3-333-553--|      |-8-10-12-----------------10-|
|-1-3-5----------5-|  or  |----------------------------| x4

(For power chords version, obviously just add relative notes)

|---------------------------------------------|
|-13-10------------10-11-11-11-11-11-11-11-11-|
|-------12-9-10-12----------------------------|
|---------------------------------------------|
|---------------------------------------------|
|---------------------------------------------|


Verse

The verser is really just the same chord palm muted but I think it may be up an octave 
Ross' part

Barry       Ross

|---|      |----|
|---|      |----|
|---|      |-10-|
|-3-|      |-10-|
|-3-|      |-8--|
|-1-|      |----|


Chorus

*Basially the same as the intro*

|------------------|      |----------------------------|
|------------------|      |----------------------------|
|------------------|      |----------------------------|
|------------------|      |---------10-101010-121210---|
|-------3-333-553--|      |-8-10-12-----------------10-|
|-1-3-5----------5-|  or  |----------------------------| x4

(For power chords version, obviously just add relative notes)

|---------------------------------------------|
|-13-10------------10-11-11-11-11-11-11-11-11-|
|-------12-9-10-12----------------------------|
|---------------------------------------------|
|---------------------------------------------|
|---------------------------------------------|


|-----------|
|-----------|
|-3---3-x---|
|-3-3-3-x-1-|
|-1-3-1-x-3-|
|---1---x-3-|  Last power chord x16 I believe
            
Hard to play? Try these video lessons and learn fast. | Correct




comments powered by Disqus
↑ Back to top | Tablatures and chords are parodies/interpretations of the original songs. You may use it for private study, scholarship, research or language learning purposes only