>
 >
A To B

A To B Guitar Tabs

Futureheads - A To B chords, tabs, tablatures, lyrics

Guitar lessons | Add/correct | Request | Top 50 tabs Artists:  A B C D E F G H I J K L M N O P Q R S T U V W X Y Z 0-9

A To B Guitar Tabs – Futureheads

CD, Sheet music, Poster

Do you like A To B? Share with your friends now
Tabs

-------------------------------------------------------------------------------
                             A to B - The Futureheads
-------------------------------------------------------------------------------

Tuning: Standard

It is really hard to tab The Futureheads as their is so much happening during the song. 
Their are two guitars and the louder vocals make it hard to hear the other guitar. 
By the way the lyrics are not always written in time with the TAB it wont fit.


Intro\chorus 

0:00

Gtr 1

e|-0000--0000----|--------------------|-0000--0000----|----------------------|
B|-0000--0000--4-|--------------------|-0000--0000--4-|----------------------|
G|-1111--2222--4-|--4-4-4-4-4-4-4-4-4-|-1111--2222--4-|--4-4-4-4-4-4-4-4-4---|
D|-2222--2222--4-|--4-4-4-4-4-4-4-4-4-|-2222--2222--4-|--4-4-4-4-4-4-4-4-4---|
A|-2222--2222--2-|--2-2-2-2-2-2-2-2-2-|-2222--2222--2-|--2-2-2-2-2-2-2-2-2---|
E|-0000--------0-|--------------------|-0000--0000--0-|----------------------|
  "A.....to....B........"              "A.....to....B......."  or to move your

Gtr 2

e|--------------11|------12-11--------|--------------11|------12-11----------|
B|----------------|-12----------------|----------------|-12------------------|
G|----------------|----11------11-11--|----------------|----11------11-11----|
D|----------------|-------------------|----------------|---------------------|
A|----------------|-------------------|----------------|---------------------|
E|-0---0---0---0--|-------------------|-0---0---0---0--|---------------------|

 

Pre - Verse 

0:11


   Gtr 1                
e|---7-7-|--------|---7-7--|-------|----7-7-|------|---7-7--|----------------|
B|---7-7-|--------|---7-7--|-------|----7-7-|------|---7-7--|----------------|
G|---4-4-|--------|---4-4--|-------|----4-4-|------|---4-4--|----------------|
D|---4-4-|--------|---4-4--|-------|----4-4-|------|---4-4--|----------------|
A|-------|--------|--------|-------|--------|------|--------|----------------|
E|-0-----|--------|-0------|-------|--0-----|------|-0------|----------------|

   Gtr 2                    
e|-------|--------|--------|-------|--------|------|--------|----------------|
B|-------|--------|--------|-------|--------|------|--------|----------------|
G|-------|--------|--------|-------|--------|-4--1-|--------|----------------|
D|-------|--------|--------|-------|--------|------|--------|-4-2------------|
A|-------|--------|--------|-------|--------|------|--------|----------------|
E|-------|--------|--------|--12\--|--------|------|--------|----------------|

  

0:17

   Gtr 1
e|------------------------|---------------------|
B|------------------------|---------------------|
G|-4-4-4--4-4-4--4-4-4----|-4-4-4--4-4-4--4-4-4-|
D|-4-4-4--4-4-4--4-4-4----|-4-4-4--4-4-4--4-4-4-|
A|-2-2-2--2-2-2--2-2-2----|-2-2-2--2-2-2--2-2-2-|
E|------------------------|---------------------|
                                                   
 Gtr 2
e|------------------------|---------------------|
B|------------------------|---------------------|
G|------------------------|---------------------|
D|-4-4-4--1-2-1-----------|-4-4-4--1-2-1--------|
A|--------------4-2---4---|--------------4-2----|
E|----------------------4-|---------------------|


Verse

0:22

   Gtr 1
e|---------------------------|-------------|----------------------|-----------|
B|---------------------------|-------------|----------------------|-----------|
G|--8-8-8----8-8-8-----------|-------------|-8-8-8--8-8-8--8-8-8--|-6--3------|
D|--9-9-9----9-9-9-----------|-------------|-9-9-9--9-9-9--9-9-9--|-4--1---4--|
A|--9-9-9----9-9-9-----------|-9-9-9-9-9-9-|-9-9-9--9-9-9--9-9-9--|--------2--|
E|--7-7-7----7-7-7-----------|-7-7-7-7-7-7-|-7-7-7--7-7-7--7-7-7--|-----------|
  "it is a shame                           "it is a pity         "when you.. 

   Gtr 2
e|---------------------------|--7----------|----------------------|-----------|
B|---------------------------|----9-7------|----------------------|-7--4---0--|
G|--4-4-4----4-4-4-----------|--------8----|----------------------|-----------|
D|--4-4-4----4-4-4-----------|-------------|-4-4-4--1-2-1---------|-----------|
A|--2-2-2----2-2-2-----------|-------------|--------------4-2-----|-----------|
E|---------------------------|-------------|----------------------|-----------|


 
   Gtr1
e|-7-7-7-7-7-7-|-7-7-7-7-7-7-|
B|-9-9-9-9-9-9-|-9-9-9-9-9-9-|
G|-9-9-9-9-9-9-|-9-9-9-9-9-9-|
D|-------------|-------------|
A|-------------|-------------|
E|-------------|-------------|

  Gtr 2
e|-------------|-------------|
B|-------------|-------------|
G|-------------|-------------|
D|-9-9-9-9-9-9-|-9-9-9-9-9-9-|
A|-7-7-7-7-7-7-|-7-7-7-7-7-7-|
E|-------------|-------------|


2nd chorus 

0:34


   Gtr 1
e|-0000-0000-7777-|---------------------|-0000-0000-7-|-------------------|
B|-0000-0000-7777-|---------------------|-0000-0000-7-|-------------------|
G|-1111-2222-8888-|-8-8-8-8-8-8-8-8-8-8-|-1111-2222-8-|-------------------|
D|-2222-2222-9999-|-9-9-9-9-9-9-9-9-9-9-|-2222-2222-9-|-9-9-9-9-9-9-9-9-9-|
A|-2222-2222-9999-|-9-9-9-9-9-9-9-9-9-9-|-2222-2222-9-|-9-9-9-9-9-9-9-9-9-|
E|-0000------7777-|-7-7-7-7-7-7-7-7-7-7-|-0000-0000-7-|-7-7-7-7-7-7-7-7-7-|
  "A....to...B....."                                   "I asked a question...
  Gtr 2
e|----------------|-11-----12-11--------|-------------|-------------------|
B|-9999-9999-7777-|---12----------------|-9999-9999---|-------------------|
G|-9999-9999-8888-|-----11-------11-11--|-9999-9999---|-------------------|
D|-9999-9999-9999-|---------------------|-9999-9999---|-9---9---11---11---|
A|-7777-7777-9999-|---------------------|-7777-7777---|--9---9---11---11--|
E|-----------7777-|---------------------|-------------|---9---9---11---11-|



   Gtr 1
e|-0000-0000-7777-|--------------------|-0000-0000-7777-|--------------------|
B|-0000-0000-7777-|--------------------|-0000-0000-7777-|--------------------|
G|-1111-2222-8888-|-8-8-8-8-8-8-8-8-8--|-1111-2222-8888-|-8-8-8-8-8-8-8-8-8--|
D|-2222-2222-9999-|-9-9-9-9-9-9-9-9-9--|-2222-2222-9999-|-9-9-9-9-9-9-9-9-9--|
A|-2222-2222-9999-|-9-9-9-9-9-9-9-9-9--|-2222-2222-9999-|-9-9-9-9-9-9-9-9-9--|
E|-0000------7777-|-7-7-7-7-7-7-7-7-7--|-0000-0000-7777-|-7-7-7-7-7-7-7-7-7--|
  "A....to...B..."                                        
   Gtr 2
e|----------------|-11-----12-11-------|----------------|-11-----12-11-------|
B|-9999-9999-7777-|---12---------------|-9999-9999-7777-|---12---------------|
G|-9999-9999-8888-|-----11-------11-11-|-9999-9999-8888-|-----11-------11-11-|
D|-9999-9999-9999-|--------------------|-9999-9999-9999-|--------------------|
A|-7777-7777-9999-|--------------------|-7777-7777-9999-|--------------------|
E|-----------7777-|--------------------|-----------7777-|--------------------|


   Gtr 1
e|-7-7-7-7-7-7-7--|-7-7-7-7-7-7-7-7----|
B|-7-7-7-7-7-7-7--|-7-7-7-7-7-7-7-7----|
G|-8-8-8-8-8-8-8--|-8-8-8-8-8-8-8-8----|
D|-9-9-9-9-9-9-9--|-9-9-9-9-9-9-9-9----|
A|-9-9-9-9-9-9-9--|-9-9-9-9-9-9-9-9----|
E|-7-7-7-7-7-7-7--|-7-7-7-7-7-7-7-7----|
" or to move your body..."

  Gtr 2
e|-11-----12-11---|--------------------|
B|---12-----------|-12-----------------|
G|-----11------11-|----11-11-11-11-----|
D|----------------|--------------------|
A|----------------|--------------------|
E|----------------|--------------------|

 
Break Verse 0:59

 Gtr 1
e|--------------|---------------|--------------|----------------|------------|
B|--------------|---------------|--------------|----------------|------------|
G|--------------|---------------|--------------|-----silence----|------------|
D|-7--9---------|---------------|-7--9---------|----------------|------------|
A|--7--9--22-22-|-4-6-----66--66|--7--9--22-22-|----------------|------------|
E|---7--9-44-44-|---------44--44|---7--9-44-44-|----------------|------------|
" I ask a....   "impossible!                   "can you say that...

  Gtr 2
e|--------------|---------------|--------------|----------------|
B|--------------|---------------|--------------|----------------|
G|--------------|---------------|--------------|----------------|
D|-9--9--9--9---|-9--9--9--9----|-9--9--9--9---|----------------|
A|--9--9--9--9--|--9--9--9--9---|--9--9--9--9--|-this starts----|
E|---9--9--9--9-|---9--9--9--9--|---9--9--9--9-|----------------|
                                                                     repeat 
  Gtr 1    1:19
e|-------|--------------|--------------|---------------|--------------|
B|-------|--------------|--------------|---------------|--------------|
G|.-----.|--------------|--------------|.--------------|-------------.|
D|.-9---.|-9--9--9--9---|-9--9--9--9---|.-9--9--9--9---|-9--9--9--9--.|
A|-------|--9--9--9--9--|--9--9--9--9--|---9--9--9--9--|--9--9--9--9--|
E|----99-|---9--9--9--9-|---9--9--9--9-|----9--9--9--9-|---9--9--9--9-|
          " i can see ...

e|-------|--------------|--------------|---------------|--------------|
B|-------|--------------|--------------|---------------|--------------|
G|.-----.|--------------|--------------|.--------------|-------------.|
D|.-----.|--------------|--------------|.-9--9--9--9---|-9--9--9--9--.|
A|-------|--------------|--------------|---------------|--------------|
E|--9-99-|-999-999-999--|-999-999-999--|---99-99-99-99-|--99-99-99-99-|
   PM 
                       repeat till chorus starts


   
Chorus 3 1:41

  Gtr 1
e|-0000-0000-7-|-------------------|
B|-0000-0000-7-|-------------------|
G|-1111-2222-8-|-------------------|
D|-2222-2222-9-|-9-9-9-9-9-9-9-9-9-|
A|-2222-2222-9-|-9-9-9-9-9-9-9-9-9-|
E|-0000------7-|-7-7-7-7-7-7-7-7-7-|
  "A....to...B..I asked a question...
  Gtr 2
e|-------------|-------------------|
B|-9999-9999---|-------------------|
G|-9999-9999---|-------------------|
D|-9999-9999---|-9---9---11---11---|
A|-7777-7777---|--9---9---11---11--|
E|-------------|---9---9---11---11-|

  Gtr 1
e|-0000-0000-7-|------------------|-0000-0000-7-|------------------|
B|-0000-0000-7-|------------------|-0000-0000-7-|------------------|
G|-1111-2222-8-|------------------|-1111-2222-8-|------------------|
D|-2222-2222-9-|-9-9-9-9-9-9-9-9--|-2222-2222-9-|-9-9-9-9-9-9-9-9--|
A|-2222-2222-9-|-9-9-9-9-9-9-9-9--|-2222-2222-9-|-9-9-9-9-9-9-9-9--|
E|-0000-0000-7-|-7-7-7-7-7-7-7-7--|-0000-0000-7-|-7-7-7-7-7-7-7-7--|
  "A....to...B..forget.the.question...
  Gtr 2
e|-------------|------------------|-------------|-11----12-11------|
B|-9999-9999---|------------------|-9999-9999---|---12-------------|
G|-9999-9999---|------------------|-9999-9999---|-----11-----11-11-|
D|-9999-9999---|-9---9---9---9----|-9999-9999---|------------------|
A|-7777-7777---|------------------|-7777-7777---|------------------|
E|-------------|--999-999-999-999-|-------------|------------------|


  Gtr 1
e|-7-7-7-7-7-7-7--|-7-7-7-7-7-7-7-7----|
B|-7-7-7-7-7-7-7--|-7-7-7-7-7-7-7-7----|
G|-8-8-8-8-8-8-8--|-8-8-8-8-8-8-8-8----|
D|-9-9-9-9-9-9-9--|-9-9-9-9-9-9-9-9----|
A|-9-9-9-9-9-9-9--|-9-9-9-9-9-9-9-9----|
E|-7-7-7-7-7-7-7--|-7-7-7-7-7-7-7-7----|
" or to move your body..."

  Gtr 2
e|-11-----12-11---|--------------------|
B|---12-----------|-12-----------------|
G|-----11------11-|----11-11-11-11-----|
D|----------------|--------------------|
A|----------------|--------------------|
E|----------------|--------------------|

Ending 2:07

  Gtr 1
e|----------------------------|---------------------------------|
B|----------------------------|---------------------------------|
G|--8-8-8--8-8-8--------------|-8-8-8--8-8-8--------------------|
D|--9-9-9--9-9-9--------------|-9-9-9--9-9-9--------------------|
A|--9-9-9--9-9-9--------------|-9-9-9--9-9-9--------------------|
E|--7-7-7--7-7-7-4-4-4--4-4-4-|-7-7-7--7-7-7--4-4-4--4-4-4------|
  "it is a shame                  "it is a pity           

   Gtr 2
e|----------------------------|---------------------------------|
B|----------------------------|---------------------------------|
G|----------------------------|---------------------------------|
D|--1-1-1---------------------|-1-1-1---------------------------|
A|---------2-2-2--------------|--------2-2-2--2222-4--6-6-6-----|
E|---------------4-4-4--2-2-4-|-----------------------4-4-4-4---|


  Gtr 1
e|----------------------------|---------------------------------|
B|----------------------------|---------------------------------|
G|--8-8-8--8-8-8--------------|-8-8-8--8-8-8--------------------|
D|--9-9-9--9-9-9--------------|-9-9-9--9-9-9--------------------|
A|--9-9-9--9-9-9--------------|-9-9-9--9-9-9--------------------|
E|--7-7-7--7-7-7-4-4-4--4-4-4-|-7-7-7--7-7-7--4-4-4--4-4-4------|
  "When you have to be..       "you have to start early               

   Gtr 2
e|----------------------------|---------------------------------|
B|----------------------------|---------------------------------|
G|----------------------------|---------------------------------|
D|--1-1-1---------------------|-1-1-1---------------------------|
A|---------2-2-2--------------|--------2-2-2--------------------|
E|---------------4-3-2-4-3-2--|---------------4-4-4--4-4-4------|
e|


  Gtr 1
e|-----------|-7-7-7-7-7-7-|-7-7-7-7-7-7-|
B|-----4--0--|-9-9-9-9-9-9-|-9-9-9-9-9-9-|
G|-4---------|-9-9-9-9-9-9-|-9-9-9-9-9-9-|
D|-----------|-------------|-------------|
A|-----------|-------------|-------------|
E|-----------|-------------|-------------|
" when you cant..

e|-7---------|-------------|-------------|
B|-7---------|-9-9-9-9-9-9-|-9-9-9-9-9-9-|
G|-8---------|-9-9-9-9-9-9-|-9-9-9-9-9-9-|
D|-9---------|-9-9-9-9-9-9-|-9-9-9-9-9-9-|
A|-9---------|-7-7-7-7-7-7-|-7-7-7-7-7-7-|
E|-7---------|-------------|-------------|


Bridge


| /  slide up
| \  slide down
| h  hammer-on
| p  pull-off
| ~  vibrato
| +  harmonic
| x  Mute note
| PM Palm Mute
===============================================================================





Comments


Popular Futureheads tabs & chords
Hounds Of Love 1 Bass Tabs
Sale Of The Century Bass Tabs
Hounds Of Love 1 Chords
I Can Do That Chords
Struck Dumb Chords
Skip To The End 2 Tabs
Area Ukulele
Fallout Ukulele
Hard To Bear Ukulele
Robot Ukulele


Song lyrics



↑ Back to top | Tablatures and chords are parodies/interpretations of the original songs. You may use it for private study, scholarship, research or language learning purposes only
© 2014 AZChords.com Contact us | Privacy policy | DMCA | Add/correct tabs | Request tabs | Top 50 tabs