» » »

Won't Forget These Days Bass tabs (ver.1)

Artists:  A B C D E F G H I J K L M N O P Q R S T U V W X Y Z # 

Won't Forget These Days Bass tabs (ver.1)

Fury In The Slaughterhouse
Rating:
0/5 (0 votes)

Hard to play? Try these video lessons and learn fast.
                -------------------------------------------------------------------------------
-------------------------------------------------------------------------------


Tuning: Standard EADG

Intro
G|--------------------------------------|
D|-/7---795-----------------------------|
A|---------8----8h10p87-----------------|
E|----------------------8-------8887775-|


G|-----------------------------------------|
D|-/7---795---------------------1010109997-|	(10s, not 1s)
A|---------8----8h10p87--------------------|
E|----------------------8------------------|


Verse 1
G|----------|-------------------------|		x7 + 1x only 1st part
D|----------|-------------------------|		
A|--------3*|-------------------------|
E|-535-535--|------011-----011-----(0)|


Pre-Chorus
G|------------------|
D|------------------|
A|-/7--5------------|
E|----------8--7----|


Chorus 1
G|---------------------------------|---------------------------------|
D|---------------------------------|---------------------------------|	x2
A|---------33333332--------5555555-|--------33333332-----------------|
E|-11111111--------33333333-------0|11111111--------3333333333333333-|

G|------------------------------------|
D|------------------------------------|
A|------------------------------------|
E|-/10101010101010101010101010101010\-|		(10s, not 1s)

Intro


Verse 2
G|---------------|---------------------|
D|---------------|---------------------|	x2
A|---------------|---------------------|
E|-55-5----88-8\-|--011-------1--1*--01|

G|---------------|---------------------|
D|---------------|---------------------|
A|---------------|---------------------|
E|-55-5----88-8\-|---1--1*----11-1*----|

G|---------------|
D|---------------|
A|---------------|
E|-55-5----88-8\-|


Pre-Chorus


Chorus 3
G|---------------------------------|----------------|-----------------|
D|---------------------------------|----------------|-----------5532--| x1 + 1x only 
A|---------33333332--------5555555-|--------33333332|---------------5-| parts 1 and 2
E|-11111111--------33333333-------0|11111111--------|33333333333------| 
not quite sure about that one, esp. the ending; think there are some flourishes

Bridge
G|----|-------|-----|
D|----|-Pause-|-----|
A|----|-some--|-----|
E|-5*-|-time--|/10\-|

G|----------------------------------|----------------------------------|
D|----------------------------------|----------------------------------|
A|--------3-33-33-355-35-53-33-3----|---------333333335555555533333333-|
E|-55-55-5----------------------53*-|-55555555-------------------------|


Chorus 2 
G|---------------------------------|----------------|-----------------|
D|---------------------------------|----------------|-----------5532--| 
A|---------33333332--------5555555-|--------33333332|---------------5-| 
E|-11111111--------33333333-------0|11111111--------|33333333333------|
repeat several times until outro

Outro
G|--------------------|
D|--------------------|
A|-/7--5----3--2--/8*-|
E|--------------------|


I think that's basically it, still it is lacking some of the flourishes,
especially in the chorus. Please comment and correct if you find out.
Otherwise just play something that fits (:

| /  slide up
| \  slide down
| h  hammer-on
| p  pull-off
| ~  vibrato
| +  harmonic
| x  Mute note
===============================================================================
            
Hard to play? Try these video lessons and learn fast. | Correct




comments powered by Disqus
↑ Back to top | Tablatures and chords are parodies/interpretations of the original songs. You may use it for private study, scholarship, research or language learning purposes only