>
 >
Time To Wonder

Time To Wonder Guitar Tabs

Fury In The Slaughterhouse - Time To Wonder chords, tabs, tablatures, lyrics

Guitar lessons | Add/correct | Request | Top 50 tabs Artists:  A B C D E F G H I J K L M N O P Q R S T U V W X Y Z 0-9

Time To Wonder Guitar Tabs – Fury In The Slaughterhouse

CD, Sheet music, Poster

Do you like Time To Wonder? Share with your friends now
ChordsChords v2TabsUkulele
--------------

- Intro

	8 Takte [git1]		(|| A | % |F#m| % | D | E | A | % ||)

	8 Takte [+git2]				%

- Vers [Vox in]

	2 * 8 Takte				%

- Small Refrain

	8 Takte			( | D | E | A |F#m| D | % | E~| ~ | )

- Vers [band in]

	2 * 8 Takte		(|| A | % |F#m| % | D | E | A | % ||)

- Big Refrain

	8 Takte     		( | D | E |C#m|F#m| D | E |C#m|F#m|
	8 Takte			  | D | E |C#m|F#m| D | % | E | % | )

- V[Vers] [instrumental;rocking]

	8 Takte			(|| A | % |F#m| % | D | E | A | % ||)

- Git.Solo

	2 * 8 Takte			- wie Vers -

- Big Refrain

	2(2 * 8) Takte		(|| D | E |C#m|F#m| D | E |C#m|F#m|
				  | D | E |C#m|F#m| D | % | E | % ||)

- Ende

	n Takte			(|| A ||)

	
-----------------------------------------------------------------------
Git.Tabs
--------

Phrasierung.Vers(git1):

  1 + 2 + 3 + 4 + 1 + 2 + 3 + 4 + 1 + 2 + 3 + 4 + 1 + 2 + 3 + 4 +
||---------------|---------------|---------------|----------------|-
||---------------|---------------|---------------|----------------|-
||---------------|---------------|6-6-6-6-6-6-6-6|6-6-6-6-6-6-6-6-|-
||---------------|---------------|4-4-4-4-4-4-4-4|4-4-4-4-4-4-4-4-|-
||7-7-7-7-7-7-7-7|7-7-7-7-7-7-7-7|---------------|----------------|-
||5-5-5-5-5-5-5-5|5-5-5-5-5-5-5-5|---------------|----------------|-
  v     v     v   v     v     v   v     v     v   v     v     v

 1 + 2 + 3 + 4 + 1 + 2 + 3 + 4 + 1 + 2 + 3 + 4 + 1 + 2 + 3 + 4 +
|---------------|---------------|---------------|---------------||
|---------------|---------------|---------------|---------------||
|---------------|---------------|---------------|---------------||
|7-7-7-7-7-7-7-7|9-9-9-9-9-9-9-9|---------------|---------------||
|5-5-5-5-5-5-5-5|7-7-7-7-7-7-7-7|7-7-7-7-7-7-7-7|7-7-7-7-7-7-7-7||
|---------------|---------------|5-5-5-5-5-5-5-5|5-5-5-5-5-5-5-5||
 v     v     v   v     v     v   v     v     v   v     v     v 


Vers.git2:

  1 + 2 + 3 + 4 + 1 + 2 + 3 + 4 + 1 + 2 + 3 + 4 + 1 + 2 + 3 + 4 +
||---------------|---------------|---------------|---------------|-
||---------------|---------------|--5-----5-----5|----5-----5----|-
||1-2---2---2---2|2-1---1---2---2|----2-----2----|2-----2-----2--|-
||---------------|---------------|4-----4-----4--|--4-----4-----4|-
||----0----------|----0----------|---------------|---------------|-
||---------------|---------------|---------------|---------------|-


 1 + 2 + 3 + 4 + 1 + 2 + 3 + 4 + 1 + 2 + 3 + 4 + 1 + 2 + 3 + 4 +
|---------------|---------------|---------------|---------------||
|3-----3-----3--|--2-----2-----2|---------------|---------------||
|--2-----2-----2|----2-----2----|1-2---2---2---2|2-1---1---2---2||
|----4-----4----|2-----2-----2--|---------------|---------------||
|---------------|---------------|----0----------|----0----------||
|---------------|---------------|---------------|---------------||


Small Refrain.git2:
  
  1 + 2 + 3 + 4 + 1 + 2 + 3 + 4 + 1 + 2 + 3 + 4 + 1 + 2 + 3 + 4 + 
||---------------|---------------|---------------|---------------|-
||5~~~~~3~~~~~2~~|0~~~~~~~~~~~~~~|5~~~~~3~~~~~2~~|---------------|-
||---------------|---------------|---------------|2~~~~~~~~~~~~~~|-
||---------------|---------------|---------------|---------------|-
||---------------|---------------|---------------|---------------|-
||---------------|---------------|---------------|---------------|-


  1 + 2 + 3 + 4 + 1 + 2 + 3 + 4 + 1 + 2 + 3 + 4 + 1 + 2 + 3 + 4 + 
||---------------|---------------|---------------|---------------||
||2---2---------2|~---2----------|---------------|---------------||
||--------2~~~---|--------2~~~--2|4~~~~~~~~~~----|---------------||
||--4---4-----4--|--4---4-----4--|6~~~~~~~~~-----|---------------||
||---------------|---------------|7~~~~~~~~~-----|---------------||
||---------------|---------------|---------------|---------------||


Git.Solo:

  1 + 2 + 3 + 4 + 1 + 2 + 3 + 4 + 1 + 2 + 3 + 4 + 1 + 2 + 3 + 4 + 
||---------------|---------------|---------------|---------------|-
||5~~~~-3~~~~-2~~|3~~~~~2~~~3~~~3|5~~~~~3~~~~~2~~|3~~~~~2~~~3~~--|-
||---------------|---------------|---------------|--------------9|-
||---------------|---------------|---------------|--------------9|-
||---------------|---------------|---------------|---------------|-
||---------------|---------------|---------------|---------------|-



  1 + 2 + 3 + 4 +  1 + 2 + 3 + 4 +  1 + 2 + 3 + 4 +  1 + 2 + 3 + 4 + 
||--------------12|12----12----12--|--12----12----12|----12----12---|-
||------12--------|--12----12----12|----12----12----|12----12----\--|-
||9-9-----9---9---|----9-----9-----|9-----9-----9---|--9-----9----\-|-
||9-9---------9---|----------------|----------------|--------------\|-
||----------------|----------------|----------------|---------------|-
||----------------|----------------|----------------|---------------|-



  1 + 2 + 3 + 4 + 1 + 2 + 3 + 4 + 1 + 2 + 3 + 4 + 1 + 2 + 3 + 4 + 
||---------------|---------------|---------------|---------------|-
||---------------|---------------|---------------|---------------|-
||9\7-7\6-6\4-4\2|2\1-1\2-2\4-4\2|2\1-1\2-2~~-4~~|/6~~~~~~~~~\---|-
||---------------|---------------|---------------|---------------|-
||---------------|---------------|---------------|---------------|-
||---------------|---------------|---------------|---------------|-



  1 + 2 + 3 + 4 + 1 + 2 + 3 + 4 + 1 + 2 + 3 + 4 + 1 + 2 + 3 + 4 + 
||---------------|---------------|---------------|---------------||
||---------------|---------------|---------------|---------------||
||--A-DUR-Pentatonik-=-F#m-Pentatonik------------|---------------||
||---------------|---------------|---------------|---------------||
||---------------|---------------|---------------|---------------||
||---------------|---------------|---------------|---------------||





Comments


Popular Fury In The Slaughterhouse tabs & chords
Won't Forget These Days Bass Tabs
Down There Chords
Jericho Chords
Kick It Out Chords
Radio Orchid Chords
Time To Wonder Chords
Time To Wonder 1 Chords
Seconds To Fall Intro Tabs
Down There Ukulele
One Way Dead End Street Ukulele


Song lyrics



↑ Back to top | Tablatures and chords are parodies/interpretations of the original songs. You may use it for private study, scholarship, research or language learning purposes only
© 2014 AZChords.com Contact us | Privacy policy | DMCA | Add/correct tabs | Request tabs | Top 50 tabs